Song name
# A B C D E F G H I J K L M N O P Q R S T U V W X Y Z

Misc Unsigned Bands - Kfz - I Dont Know tab

This is a really easy song....so yeah....by a one time band that I saw
once.....who no1's ever heard of....there's really strong rhythm chords but I
don't know 'em....I just know the easy lead part...

4 measure bass intro

Drum fill

Verse:
e)--0--7--10--5--7--7-7--0--7--10--5--7-7-7-\
B)------------------------------------------  \
G)------------------------------------------   \ 2x  
D)------------------------------------------   /
A)------------------------------------------ /
E)------------------------------------------/

Chorus:
e)-------------------------------------------\
B)------------------------------------------- \
G)-----9--7--7-7--9--------9--7--7-7--9------  \ 4x
D)--7----------------9--7----------------9--7  /
A)------------------------------------------- /
E)-------------------------------------------/

Background for guitar solo (16 measures):
C5......C5......C5......A5----4X

Chorus again.....

Bass SOLO!!

CLAP ON 2 and 4 FOR 16 MEASURES

Drum Solo:
e)------------\
B)------------ \
G)------------  \16x
D)------------  /
A)------------ /
E)--5h7--5h7--/

Chorus

Outro:
e)--5h7--5h7----5p3--5h7|                                                                    
B)----------------------|                                                                    
G)----------------------|                                                                   
D)----------------------|.....whatever for about 4 measures..... 
A)----------------------|then play either B5 or just a B chord to end it
E)----------------------|                                                                    
Tap to rate this tab
 
# A B C D E F G H I J K L M N O P Q R S T U V W X Y Z