Song name
# A B C D E F G H I J K L M N O P Q R S T U V W X Y Z

Misc Unsigned Bands - Descending Beneath - The Suffering tab

---------------------------------------------------------
NOTE
---------------------------------------------------------
there was a mistake in the posting,this is really the bass part to The Suffering

Tune-standard
Artist-Descending Beneath
Album-Denying the Existence of Life
Song-The Suffering
e-a-d-g-b
(intro/chorus)
----------------------------------------------          3-3-1-2-4-5=--|
----------------------------------------------          --------------|
----------------------------------------------          --------------|
----------------------------------------------          --------------|
----------------------------------------------          --------------|

(main riff 1)(play till lyrics end then finish)
------------------------------|
------------------------------|
--------------------------3/7-|
------------------1-1-3-2-----|
1111-3333-2-3-4-5-------------|

(Main riff 2)
---------------------------------------------------------------------------|
---------------------------------------------------------------------------|
---------------------------------------------------------------------------|
111111------111111------111111------111111------111111-----111111----------|
---------------------------------------------------------------------------|

(chorus)(play till lyrics end then finish)
(main riff 2)
(main riff 1)(play till lyrics end then finish)
(guitar 1 pick slide)(drum roll 4 5 seconds)
(chorus)(play till lyrics end then hold till drum solo)
(drum solo)
(pre-solo)-guitar 2
(solo)-guitar 1
(main rift 1)
(main rift 2)
(chorus)
Tap to rate this tab
# A B C D E F G H I J K L M N O P Q R S T U V W X Y Z