Song name
# A B C D E F G H I J K L M N O P Q R S T U V W X Y Z

Misc Unsigned Bands - Descending Beneath - I Walk And Death Follows tab

Tune-Drop C
Artist-Descending Beneath
Album-Denying the Existence of Life
Song-I Walk (And Death Follows)
The whole song is distorted

(intro/main riff 1)
(guitar 1)
-------------------------------------------------------------|
-------------------------------------------------------------|
-------------------------------------------------------------|
-------------------------------------------------------------|
------------------------------------------0-0-0-0------------|
--00-3h4p3-0000-3h4p3-00-000-000-000-000-0-0-0-0--3333-3h4p3-|
                    pm.. ... ... ... ... ........

(guitar 2)(jus repeat and end with guitar 1)
-----------------------------------------------------------------------|
-----------------------------------------------------------------------|
-----------------------------------------------------------------------|
-----------------------------------------------------------------------|
---------------------------------------------3b------------------------|
0-0-0-0-3-0-0-0-0-0-0-6p5-0-0-0-0-3-0-0-0-0-0---0-0-0-0-3b-0-0-0-0-5b--|

(main riff 2-play till lyrics end then finish playing)
(guitar 1)
----------------------------------------------------------------------------|
----------------------------------------------------------------------------|
----------------------------------------------------------------------------|
----------------------------------------------------------------------------|
----------------------------------------------------------------------------|
--11111111111111110000000000000000333333333333333322222222222222221111111111
fm..........................................................................

(guitar 2)
---------------------------------------------------------------------------|
---------------------------------------------------------------------------|
---------------------------------------------------------------------------|
---------------------------------------------------------------------------|
3333333333333333----------------555555555555555544444444444444443333333333-|
11111111111111110000000000000000333333333333333322222222222222221111111111-
              pm................

(main riff 1)

(chorus)play till lyrics end then finish playing
(guitar 1)                                                  /repeat 4 times\
------------------------------------------------------------------------|
------------------------------------------------------------------------|
4444-6666-7777-9999-4444-6666-7777-9999-4444-6666-7777-9999-4-6-7-9-7-6-|
------------------------------------------------------------------------|
------------------------------------------------------------------------|
------------------------------------------------------------------------|

-------|
-------|
6h7p6b-
-------|
-------|
-------|

(guitar 2)
------------------------------------|
------55555-77777-------------------|
------33333-55555-------------------|
33333-33333-55555-77777-55555-33333-|
33333-------------55555-33333-33333-|
33333-------------55555-33333-33333-|

(main riff 1)
(main riff 2)
(main riff 1)
(chorus)

(pre-solo)
(both guitars)
-----------------------|
-----------------------|
-----------------------| repeat
6p0-7p0-8p0-7p0--------| 10 times
4p0-5p0-6p0-5p0--------|
-----------------------|

(solo)
(guitar 1)
---------------------9-10-11-10-9--9-10-11-10-9---9-10-11-10-9h10p9h10p9h10-|
8b-7b--------7h8p7-9--------------9--------------9--------------------------|
------7b---7----------------------------------------------------------------|
---------7------------------------------------------------------------------|
----------------------------------------------------------------------------|
----------------------------------------------------------------------------|

(chorus)
(main riff 1)
(main riff 2)
(main riff 1)
Tap to rate this tab
 
# A B C D E F G H I J K L M N O P Q R S T U V W X Y Z