Song name
# A B C D E F G H I J K L M N O P Q R S T U V W X Y Z

Misc Unsigned Bands - Descending Beneath - A Plague Of Insubordination tab

Tune-Drop c
Artist-Descending Beneath
Album-Denying the Existence of Life
Song-A Plague of Insubordination
C-G-C-F-A-D

(intro)x3
(guitar 1)
------------------------------------------------------|
------------------------------------------------------|
-------9-----8-----7-----------9-8-----------7--------|
-----7---8-6---7-5---6w------8-----9/8b----8---7-6b---|
------------------------------------------------------|
--00--------------------0000------------00------------|
pm..                    ....            ..

(guitar 2)
------------------------------------------------------|
------------------------------------------------------|
------------------------------------------------------|
------------------------------------------------------|
--33--------------------3333------------33------------|
--11--------------------1111------------11------------|

(main riff 1)
(guitar 1)
-----------------                ---------|
-----------------                ---------|
-----------------                ---------|
-----------------                ---------|
-----------------                ---------|
000000/pickslide\ repeat 4 times 000000-5b repeat 3 times /pickslide\

(guitar 2)
-----------------                ---------|
-----------------                ---------|
-----------------                ---------|
-----------------                ---------|
-----------------                ---------|
-----------------                ---------|

(main riff 2)repeat till lyrics end then finish playing
(guitar 1)
-----------------------------              ---------------------|
-----------------------------              ---------------------|
-----------------------------              555555555/66666666w--|
----------------------------- play 3 times ---------------------|
-----------------------------              ---------------------|
--00000000000000000000-0000/5              ---------------------|
pm....................

(guitar 2)
-----------------------------              ---------------------|
-----------------------------              ---------------------|
-----------------------------              ---------------------|
----------------------------- play 3 times ---------------------|
--33333333333333333333-44h7p6              ---------------------|
--11111111111111111111-------              ---------------------|

(chorus)repeat till lyrics end then finish playing
(guitar 1)
-------------------------------------------------------------------|
-------------------------------------------------------------------|
------------------------------------------------4------------------|
-----------------------------------------------3-3-----------------|
6-6-5-3-4-6-6-5-3-4-7-7-6-4-5-7-7-6-4-5-------2---2----------------|
4-4-3-1-2-4-4-3-1-2-5-5-4-2-3-5-5-4-2-3-0000-1-----1-00-000000-111-|
                                      pm....         .. ......

(guitar 2)
------------------------------------------------------------------|
------------------------------------------------------------------|
------------------------------------------------------------------|
666666/777777/888888/999999/888888/999999/666666/777777/999999/777|
444444/555555/666666/777777/666666/777777/444444/555555/777777/555|
------------------------------------------------------------------|

(main riff 1)
(main riff 2)
(chorus)
(main riff 1)

(Pre-Solo)
(guitar 1)
-------------------------------------------------------------|
------------------------------------6-6-7-5-6w---------------|
-------------------------------------------------------------|
7-0-7-0-9-9-8-7-0-7-0-7-0-9-9-8-7-0------------0==========---|
-------------------------------------------------------------|
-------------------------------------------------------------|/pickslide\

(guitar 2)
-------------------------------------------------------------|
-------------------------------------------------------------|
-------------------------------------------------------------|
-------------------------------------------------------------|
1-0-1-0-3-3-2-1-0-1-0-1-0-3-3-2-1-0--------------------------|
1-0-1-0-3-3-2-1-0-1-0-1-0-3-3-2-1-0--------------------------|

(solo)
(guitar 1 only)
                         /               finger tap                 \
-----------------------------------------------------------------------------|
-----------------------------------------------------------------------------|
7h8p7-8-9-8-7h8p7---------------12p10h12p10h12p10h12p10h13p10h13p10h13p10h13-|
-----------------10-9-8-7-7h8p7----------------------------------------------|
-----------------------------------------------------------------------------|
-----------------------------------------------------------------------------|

(Solo cont)
/              finger tap                     \                     /repeat 3 times\
------------------------------------------------13131313131313131313------------5555-|
---------------------------------------------------------------------5----------5555-|
12p10h12p10h12p10h12p10h11p10h11p10h11p10h11p10------------------------5--------5555-|
-------------------------------------------------------------------------5-5h6p5-----|
-------------------------------------------------------------------------------------|
-------------------------------------------------------------------------------------|

(main riff 1)
(main riff 2)
(Chorus)
(main riff 2)

(Outro)
(guitar 1 only)
-------                --------------------|
-------                --------------------|
--9----                --------------------|
----7-8 repeat 3 times 0================---|
7------                --------------------|
-------                --------------------|
Tap to rate this tab
# A B C D E F G H I J K L M N O P Q R S T U V W X Y Z