Song name
# A B C D E F G H I J K L M N O P Q R S T U V W X Y Z

Misc Unsigned Bands - 3oh3 - Tapp tab

3OH!3
"Tapp"
Want
(c) 2008 Photo Finish Records

Tuning: Drop D (DADGBe)

Tabbed by: arbocalaviv
Email: arbocalaviv@aol.com

Tabbed from synth to guitar. This is really easy, and sounds just like the song!

Intro cannot be played on guitar

Part 1

e|--------------------|
B|--------------------|
G|--------------------|
D|-55---x---55-55---x-|
A|-55---x---55-55---x-|
E|-55---x---55-55---x-|(x7)
   *

e|-------------|
B|-------------|
G|-------------|
D|-55---x---55-|
A|-55---x---55-|
E|-55---x---55-| Pause
   *

Part 2

e|-----------------------------------------|
B|-----------------------------------------|
G|-----------------------------------------|
D|-55---x---55-55---x---88---x---88-88---x-|
A|-55---x---55-55---x---88---x---88-88---x-|
E|-55---x---55-55---x---88---x---88-88---x-|
   *                    *

e|-----------------------------------------|
B|-----------------------------------------|
G|-----------------------------------------|
D|-11---x---11-11---x---33---x---33-33---x-|
A|-11---x---11-11---x---33---x---33-33---x-|
E|-11---x---11-11---x---33---x---33-33---x-|
   *                    *

Repeat Part 2

Outro cannot be played on guitar

KEY:
* under the note = palm muted
x = mute string with left hand

http://www.photofinishrecords.com/
Tap to rate this tab
# A B C D E F G H I J K L M N O P Q R S T U V W X Y Z