Guitaretab - guitar tabs
Song name
# A B C D E F G H I J K L M N O P Q R S T U V W X Y Z

Misc Unsigned Bands - His Last Fall - Seeking Redemption tab

-------------------------------------------------------------------------------
			     Seeking Redemption - His Last Fall
-------------------------------------------------------------------------------
Tabbed by: Mike [Guitarist of His Last Fall]
Email: xXemkidXx@yahoo.com

Tuning: Drop D

*NOTE* We are an upcoming band based in RVA, this is our first tab, 
of one of our very first songs, once we release our demo, you will 
be able to play along, but up to that point just make up your own 
rhythm. *NOTE*


e|---------------------------------------------------------------------------|
B|---------------------------------------------------------------------------|
G|---------------------------------------------------------------------------|
D|-7-7--7-7--7-7--7-7--7-7-7-7--10-10--10-10--10-10--10-10--10-10-10-10------|
A|-5-5--5-5--5-5--5-5--5-5-5-5---8--8---8--8---8--8---8--8---8--8--8--8------|
D|-5-5--5-5--5-5--5-5--5-5-5-5---8--8---8--8---8--8---8--8---8--8--8--8------|

e|---------------------------------------------------------------------------|
B|---------------------------------------------------------------------------|
G|---------------------------------------------------------------------------|
D|-5-5--5-5--5-5--5-5--5-5-5-5--3-3--3-3--3-3--3-3--3-3-3-3------------------|
A|-3-3--3-3--3-3--3-3--3-3-3-3--1-1--1-1--1-1--1-1--1-1-1-1------------------|
D|-3-3--3-3--3-3--3-3--3-3-3-3--1-1--1-1--1-1--1-1--1-1-1-1------------------|

e|---------------------------------------------------------------------------|
B|---------------------------------------------------------------------------|
G|---------------------------------------------------------------------------|
D|-7-7--7-7--7-7--7-7--7-7-7-7--10-10--10-10--10-10--10-10--10-10-10-10------|
A|-5-5--5-5--5-5--5-5--5-5-5-5---8--8---8--8---8--8---8--8---8--8--8--8------|
D|-5-5--5-5--5-5--5-5--5-5-5-5---8--8---8--8---8--8---8--8---8--8--8--8------|

e|---------------------------------------------------------------------------|
B|---------------------------------------------------------------------------|
G|---------------------------------------------------------------------------|
D|-5-5--5-5--5-5--5-5--5-5-5-5--3--------------------------------------------|
A|-3-3--3-3--3-3--3-3--3-3-3-3--1--------------------------------------------|
D|-3-3--3-3--3-3--3-3--3-3-3-3--1--------------------------------------------|

e|---------------------------------------------------------------------------|
B|---------------------------------------------------------------------------|
G|---------------------------------------------------------------------------|
D|-0-0-0-------------------0-0-0-------------------8-9-7-8-------------------|
A|-0-0-0--0-0-0-0-0-0-0-0--0-0-0--0-0-0-0-0-0-0-0--8-9-7-8-------------------|
D|-0-0-0--0-0-0-0-0-0-0-0--0-0-0--0-0-0-0-0-0-0-0--8-9-7-8-------------------|
          * * * * * * * *         * * * * * * * *
e|---------------------------------------------------------------------------|
B|---------------------------------------------------------------------------|
G|---------------------------------------------------------------------------|
D|-0-0-0-------------------0-0-0-------------------8-9-7-8-------------------|
A|-0-0-0--0-0-0-0-0-0-0-0--0-0-0--0-0-0-0-0-0-0-0--8-9-7-8-------------------|
D|-0-0-0--0-0-0-0-0-0-0-0--0-0-0--0-0-0-0-0-0-0-0--8-9-7-8-------------------|
          * * * * * * * *         * * * * * * * *
e|---------------------------------------------------------------------------|
B|---------------------------------------------------------------------------|
G|---------------------------------------------------------------------------|
D|-0-0-0--0-0-0--0-0-0--0-0-0------------------------------------------------|
A|-0-0-0--0-0-0--0-0-0--0-0-0------------------------------------------------|
D|-0-0-0--0-0-0--0-0-0--0-0-0------------------------------------------------|

e|---------------------------------------------------------------------------|
B|---------------------------------------------------------------------------|
G|---------------------------------------------------------------------------|
D|---------------------------------------------------------------------------|
A|---------------------------------------------------------------------------|
D|-0h5h8-0h5h8-0h5h8-0h5h8--0h7h10-0h7h10-0h7h10-0h7h10----------------------|

e|---------------------------------------------------------------------------|
B|---------------------------------------------------------------------------|
G|---------------------------------------------------------------------------|
D|---------------------------------------------------------------------------|
A|---------------------------------------------------------------------------|
D|-0h4h7-0h4h7-0h4h7-0h4h7--0h2h5-0h2h5-0h2h5-0h2h5--------------------------|

e|---------------------------------------------------------------------------|
B|---------------------------------------------------------------------------|
G|---------------------------------------------------------------------------|
D|---------------------------------------------------------------------------|
A|---------------------------------------------------------------------------|
D|-0h5h8-0h5h8-0h5h8-0h5h8--0h7h10-0h7h10-0h7h10-0h7h10----------------------|
[ Tab from: http://www.guitaretab.com/m/misc-unsigned-bands/113252.html ]
e|---------------------------------------------------------------------------|
B|---------------------------------------------------------------------------|
G|---------------------------------------------------------------------------|
D|---------------------------------------------------------------------------|
A|---------------------------------------------------------------------------|
D|-0h4h7-0h4h7-0h4h7-0h4h7--0h2h5-0h2h5-0h2h5-0h2h5-0h2h5-0h2h5-0h2h5-0h2h5--|

e|---------------------------------------------------------------------------|
B|---------------------------------------------------------------------------|     
G|---------------------------------------------------------------------------|
D|-0-0--8-8--3-3-3-3-3-3-3-3-3-3-3-3-3-3-3-3---------------------------------|
A|-0-0--8-8--3-3-3-3-3-3-3-3-3-3-3-3-3-3-3-3---------------------------------|
D|-0-0--8-8--3-3-3-3-3-3-3-3-3-3-3-3-3-3-3-3---------------------------------|

e|---------------------------------------------------------------------------|
B|---------------------------------------------------------------------------|
G|---------------------------------------------------------------------------|
D|-10-10-10-10-10-10-10-10-10-10-10-10-10-10-10-10---------------------------|
A|-10-10-10-10-10-10-10-10-10-10-10-10-10-10-10-10---------------------------|
D|-10-10-10-10-10-10-10-10-10-10-10-10-10-10-10-10---------------------------|
      
             *Play this whole phrase 5 times* *On The fifth time slide down
                                               slide down from the 10 power
                                               chord to a 0 power chord*

e|---------------------------------------------------------------------------|
B|---------------------------------------------------------------------------|
G|-----------------10-10--9-9-------------------10-10--12-12-----------------|
D|-0--0-0--0--0-0---X--X--X-X---0--0-0--0--0-0---X--X---X--X-----------------|
A|-0--0-0--0--0-0---8--8--7-7---0--0-0--0--0-0---8--8--10-10-----------------|
D|-0--0-0--0--0-0---------------0--0-0--0--0-0-------------------------------|
      * *     * *                  * *     * *   
e|---------------------------------------------------------------------------|
B|---------------------------------------------------------------------------|
G|-----------------10-10--9-9-------------------10-10--12-12-----------------|
D|-0--0-0--0--0-0---X--X--X-X---0--0-0--0--0-0---X--X---X--X-----------------|
A|-0--0-0--0--0-0---8--8--7-7---0--0-0--0--0-0---8--8--10-10-----------------|
D|-0--0-0--0--0-0---------------0--0-0--0--0-0-------------------------------|
      * *     * *                  * *     * *   

e|---------------------------------------------------------------------------|
B|---------------------------------------------------------------------------|
G|---------------------------------------------------------------------------|
D|-0--0-0--0--0-0--0--0-0--0-------------------------------------------------|
A|-0--0-0--0--0-0--0--0-0--0-------------------------------------------------|
D|-0--0-0--0--0-0--0--0-0--0-------------------------------------------------|
      * *     * *     * *  
e|---------------------------------------------------------------------------|
B|---------------------------------------------------------------------------|
G|---------------------------------------------------------------------------|
D|-0-----8-----3-----10------------------------------------------------------|
A|-0-----8-----3-----10------------------------------------------------------|
D|-0-----8-----3-----10------------------------------------------------------|
           
              *Strum these chords softly, play two times*

e|---------------------------------------------------------------------------|
B|---------------------------------------------------------------------------|     
G|---------------------------------------------------------------------------|
D|-0-0--8-8--3-3-3-3-3-3-3-3-3-3-3-3-3-3-3-3---------------------------------|
A|-0-0--8-8--3-3-3-3-3-3-3-3-3-3-3-3-3-3-3-3---------------------------------|
D|-0-0--8-8--3-3-3-3-3-3-3-3-3-3-3-3-3-3-3-3---------------------------------|

e|---------------------------------------------------------------------------|
B|---------------------------------------------------------------------------|
G|---------------------------------------------------------------------------|
D|-10-10-10-10-10-10-10-10-10-10-10-10-10-10-10-10---------------------------|
A|-10-10-10-10-10-10-10-10-10-10-10-10-10-10-10-10---------------------------|
D|-10-10-10-10-10-10-10-10-10-10-10-10-10-10-10-10---------------------------|

           *Play this entire phrase four times, 
            then end on an open 0 power chord*




Lyrics :

Seeking redemption, we'll find out what we've been missing.
Seeking redemption, we'll drive to the end of this old town.
Seeking redemption, we'll find out what we've been missing.
Seeking redemption, we'll drive to the end of this old town.

Seeking redemption, we'll hold fast to our thoughts, and onto our dreams, so stay.

What we're missing is the point of revenue.
All we want is to start off brand new.

Seeking redemption, we'll find out what we've been missing.
Seeking redemption, we'll drive to the end of this old town.
Seeking redemption, we'll find out what we've been missing.
Seeking redemption, we'll drive to the end of this old town.



All music  2008 of His Last Fall. 

| /  slide up
| \  slide down
| h  hammer-on
| p  pull-off
| ~  vibrato
| +  harmonic
| x  Mute note
===============================================================================
Related for His Last Fall - Seeking Redemption tab