Guitaretab - guitar tabs
Song name
# A B C D E F G H I J K L M N O P Q R S T U V W X Y Z

Misc Unsigned Bands - Straatligkinders - Kruis My Hart tab

Band: Straatligkinders
Song title: Kruis my hart:

this isn't an unsigned band, they're just from south-africa and is the hottest
thing since the beatels in afrikaans rock

Intro:
e|----------------------------------------------------------------|
B|----------------------------------------------------------------|
G|----------------------------------------------------------------|
D|-----9---10-10-9-------------12-12-10-10-------12----10-10-9-10-|
A|-7-7---7---------7-10-10-10-------------10-10----10------------|
E|----------------------------------------------------------------|
  ****************************************************************

e|---------------|
B|---------------|
G|---------------|
D|---------------|
A|-9-9-9-9-9-9-9-|
E|---------------|
   **************

e|----------------------------------------------------------------|
B|----------------------------------------------------------------|
G|----------------------------------------------------------------|
D|-----9---10-10-9-------------12-12-10-10-------12----10-10-9-10-|
A|-7-7---7---------7-10-10-10-------------10-10----10------------|
E|----------------------------------------------------------------|
  ****************************************************************

e|---------------|
B|---------------|
G|---------------|
D|---------------|
A|-9-9-9-9-9-9-9-|
E|---------------|
   ****** let off palm mute

Verse 1:
e|----------------------------------------------------------------|
B|----------------------------------------------------------------|
G|----------------------------------------------------------------|
D|-----9---10-10-9-------------12-12-10-10-------12----10-10-9-10-|
A|-7-7---7---------7-10-10-10-------------10-10----10------------|
E|----------------------------------------------------------------|
  ****************************************************************

e|---------------|
B|---------------|
G|---------------|
D|---------------|
A|-9-9-9-9-9-9-9-|
E|---------------|
   **************

e|----------------------------------------------------------------|
B|----------------------------------------------------------------|
G|----------------------------------------------------------------|
D|-----9---10-10-9-------------12-12-10-10-------12----10-10-9-10-|
A|-7-7---7---------7-10-10-10-------------10-10----10------------|
E|----------------------------------------------------------------|
  ****************************************************************

e|---------------|
B|---------------|
G|---------------|
D|---------------|
A|-9-9-9-9-9-9-9-|
E|---------------|
   **************

e|----------------------------------------------------------------|
B|----------------------------------------------------------------|
G|----------------------------------------------------------------|
D|-----9---10-10-9-------------12-12-10-10-------12----10-10-9-10-|
A|-7-7---7---------7-10-10-10-------------10-10----10------------|
E|----------------------------------------------------------------|
  ****************************************************************

e|---------------|
B|---------------|
G|---------------|
D|---------------|
A|-9-9-9-9-9-9-9-|
E|---------------|
   **************

e|----------------------------------------------------------------|
B|----------------------------------------------------------------|
G|----------------------------------------------------------------|
D|-----9---10-10-9-------------12-12-10-10-------12----10-10-9-10-|
A|-7-7---7---------7-10-10-10-------------10-10----10------------|
E|----------------------------------------------------------------|
  ****************************************************************

e|---------------|
B|---------------|
G|---------------|
D|---------------|
A|-9-9-9-9-9-9-9-|
E|---------------|
   ******* let off palm mute

Chorus:
e|-------------------------------------------------|
B|-------------------------------------------------|
G|-12-12-12-12-12-12-12-12-------------------------|
D|-12-12-12-12-12-12-12-12-12-12-12-12-12-12-12-12-|
A|-10-10-10-10-10-10-10-10-12-12-12-12-12-12-12-12-|
E|-------------------------10-10-10-10-10-10-10-10-|

e|-----------------------------------------|
B|-----------------------------------------|
G|-----------------------------------------|
D|-10-10-10-10-10-10-10-10-5-5-5-5-5-5-5-5-|
A|-10-10-10-10-10-10-10-10-5-5-5-5-5-5-5-5-|
E|--8--8--8--8--8--8--8--8-3-3-3-3-3-3-3-3-|
[ Tab from: http://www.guitaretab.com/m/misc-unsigned-bands/113270.html ]
e|-------------------------------------------------|
B|-------------------------------------------------|
G|-12-12-12-12-12-12-12-12-------------------------|
D|-12-12-12-12-12-12-12-12-12-12-12-12-12-12-12-12-|
A|-10-10-10-10-10-10-10-10-12-12-12-12-12-12-12-12-|
E|-------------------------10-10-10-10-10-10-10-10-|

e|-----------------------------------------|
B|-----------------------------------------|
G|-----------------------------------------|
D|-10-10-10-10-10-10-10-10-5-5-5-5-5-5-5-5-|
A|-10-10-10-10-10-10-10-10-5-5-5-5-5-5-5-5-|
E|--8--8--8--8--8--8--8--8-3-3-3-3-3-3-3-3-|

Riff:   (listen to song for rythm)
e|----------------------------------------------------------|
B|----------------------------------------------------------|
G|-9--9--9--9--12--12--11-12--12--12--12--12--14--14--12-11-|
D|-9--9--9--9--12--12--11-12--12--12--12--12--14--14--12-11-|   x2
A|-7--7--7--7--10--10---9-10--10--10--10--10--12--12--10--9-|
E|----------------------------------------------------------|

Verse 2
e|----------------------------------------------------------|
B|----------------------------------------------------------|
G|-9--9--9--9--12--12--11-12--12--12--12--12--14--14--12-11-|
D|-9--9--9--9--12--12--11-12--12--12--12--12--14--14--12-11-|
A|-7--7--7--7--10--10---9-10--10--10--10--10--12--12--10--9-|
E|----------------------------------------------------------|

e|--------------------------------------------------|
B|--------------------------------------------------|
G|-9--9--9--9--12--12--11-12--12--12--12--12--14-14-|
D|-9--9--9--9--12--12--11-12--12--12--12--12--14-14-|
A|-7--7--7--7--10--10---9-10--10--10--10--10--12-12-|
E|--------------------------------------------------|

Chorus:
e|-------------------------------------------------|
B|-------------------------------------------------|
G|-12-12-12-12-12-12-12-12-------------------------|
D|-12-12-12-12-12-12-12-12-12-12-12-12-12-12-12-12-|
A|-10-10-10-10-10-10-10-10-12-12-12-12-12-12-12-12-|
E|-------------------------10-10-10-10-10-10-10-10-|

e|-----------------------------------------|
B|-----------------------------------------|
G|-----------------------------------------|
D|-10-10-10-10-10-10-10-10-5-5-5-5-5-5-5-5-|
A|-10-10-10-10-10-10-10-10-5-5-5-5-5-5-5-5-|
E|--8--8--8--8--8--8--8--8-3-3-3-3-3-3-3-3-|

e|-------------------------------------------------|
B|-------------------------------------------------|
G|-12-12-12-12-12-12-12-12-------------------------|
D|-12-12-12-12-12-12-12-12-12-12-12-12-12-12-12-12-|
A|-10-10-10-10-10-10-10-10-12-12-12-12-12-12-12-12-|
E|-------------------------10-10-10-10-10-10-10-10-|

e|-----------------------------------------|
B|-----------------------------------------|
G|-----------------------------------------|
D|-10-10-10-10-10-10-10-10-5-5-5-5-5-5-5-5-|
A|-10-10-10-10-10-10-10-10-5-5-5-5-5-5-5-5-|
E|--8--8--8--8--8--8--8--8-3-3-3-3-3-3-3-3-|

e|-----------------------------------------|
B|-----------------------------------------|
G|-12-12-x x-12-12-x x---------------------|
D|-12-12-x x-12-12-x x-12-12-x x-12-12-x x-|
A|-10-10-x x-10-10-x x-12-12-x x-12-12-x x-|
E|---------------------10-10-x x-10-10-x x-|

e|-------------------------------------|
B|-------------------------------------|
G|-------------------------------------|
D|-10-10-x x-10-10-x x-5-5-5-5-x x x x-|
A|-10-10-x x-10-10-x x-5-5-5-5-x x x x-|
E|--9--9-x x--9--9-x x-3-3-3-3-x x x x-|

e|-----------------------------------------|
B|-----------------------------------------|
G|-12-12-x x-12-12-x x---------------------|
D|-12-12-x x-12-12-x x-12-12-x x-12-12-x x-|
A|-10-10-x x-10-10-x x-12-12-x x-12-12-x x-|
E|---------------------10-10-x x-10-10-x x-|

e|-------------------------------------|
B|-------------------------------------|
G|-------------------------------------|
D|-10-10-x x-10-10-x x-5-5-5-5-x x x x-|
A|-10-10-x x-10-10-x x-5-5-5-5-x x x x-|
E|--9--9-x x--9--9-x x-3-3-3-3-x x x x-|

Bridge: (strum this chord until distortion part begins)
e|----
B|----
G|-12-
D|-12-
A|-10-
E|----

Distortion part:
e|-------------------------------------------------------|
B|-------------------------------------------------------|
G|-------------------------------------------------------|
D|-5-5-5-5-5-5-5-5-0-0-0-0-0-0-0-0-10-10-10-10-10-10-9-9-|
A|-5-5-5-5-5-5-5-5-0-0-0-0-0-0-0-0-----------------------|
E|-3-3-3-3-3-3-3-3---------------------------------------|
                   ***************
e|-----------------|
B|-----------------|
G|-----------------|
D|-----------------|   repeat 'till fade out
A|-5-5-5-5-5-5-5-5-|
E|-3-3-3-3-3-3-3-3-|
   ***************

enjoy!!!
Related for Straatligkinders - Kruis My Hart tab