Song name
# A B C D E F G H I J K L M N O P Q R S T U V W X Y Z

Misc Unsigned Bands - Lower The Casket - Knuckle Dragger tab

t= tap, h= hammer on, p= pull off

Intro riff part one
----------------------------------------|
----------------------------------------|
----------------------------------------|
-15-14 12-------------------------------|
----------15-14-------------------------|
----------------------------------------|

Intro riff scale run (Hammer on all notes)
--------------------------------h13-15-17-------|
------------------------h13-15-17---------------|
----------------h12-14-16-----------------------|
--------h12-14-15-------------------------------|
h12-14-15---------------------------------------|
------------------------------------------------|

Intro riff sweeps

t22-p17-p13--------------13h17-t22-p17-p13----------|
-----------15----------15------------------15-------|
-------------14------14----------------------14-----|
---------------15--15--------------------------15---|
-----------------17------------------------------17-|
----------------------------------------------------|

Intro riff last part

-----------------------------------------|
-----------------------------------------|
-----------------------------------------|
-----------------------------------------|
17-15h17-p15-12--------------------------|
-----------------------------------------|

Verse lead riff

----------------------------------------|
-----6----------------------------------|
----7-7-------7-10-9-7-9-7-6------------|
---7---7-----7--------------------------|
5h8-----8-5-8---------------------------|
----------------------------------------|

----------------------------------------|
-----6---------6p5h6-10p9h10------------|
----7-7-------7-------------------------|
---7---7-----7--------------------------|
5h8-----8-5-8---------------------------|
----------------------------------------|
Tap to rate this tab
# A B C D E F G H I J K L M N O P Q R S T U V W X Y Z