Song name
# A B C D E F G H I J K L M N O P Q R S T U V W X Y Z

Misc Unsigned Bands - Shark Attack - Misery Loves Company tab

-------------------------------------------------------------------------------
			     MISERY LOVES COMPANY - Shark Attack
-------------------------------------------------------------------------------
Tabbed by: Chris Nadell
Email: ceXhc@msn.com

http://www.myspace.com/sharkattack12fuckyou
http://www.bridge9.com


Tuning: Standard (EADGBe)

  Intro (Bass arranged for guitar)
e|---------------|---------------|---------------|---------------|
B|---------------|---------------|---------------|---------------|
G|---------------|---------------|---------------|---------------|
D|---------------|---------------|---------------|---------------| x2
A|---------------|---------------|-0--0-0-0-2--3-|--3-3--3-3-3-3-|
E|-0--0-0-0-2--3-|--3-3--3-3-3-3-|---------------|---------------|

  Verse                                           1-3.                 4.
e|---------------|---------------|---------------|---------------|    |---------------|
B|---------------|---------------|---------------|---------------|    |---------------|
G|-4--4-4-4-4--4-|--4-4--4-4-4-5-|---------------|-------5-5-5-5-|    |---------------|
D|-4--4-4-4-4--4-|--4-4--4-4-4-5-|-7--7-7-7-7--5-|--5-5--5-5-5-5-| x4 |--5-5--5-5-5-7-|
A|-2--2-2-2-2--2-|--2-2--2-2-2-3-|-7--7-7-7-7--5-|--5-5--3-3-3-3-|    |--5-5--5-5-5-7-|
E|---------------|---------------|-5--5-5-5-5--3-|--3-3----------|    |--3-3--3-3-3-5-|

  Chorus
e|---------------|---------------|---------------|---------------|
B|---------------|---------------|---------------|---------------|
G|---------------|---------------|-2--2-2-2-4--5-|--5-5--5-5-5-5-|
D|-2--2-2-2-4--5-|--5-5--5-5-5-5-|-2--2-2-2-4--5-|--5-5--5-5-5-5-| x4
A|-2--2-2-2-4--5-|--5-5--5-5-5-5-|-0--0-0-0-2--3-|--3-3--3-3-3-3-|
E|-0--0-0-0-2--3-|--3-3--3-3-3-3-|---------------|---------------|

  Repeat Verse

  Rest 8 Measures (Bass Filler)

  Repeat Chorus

e|----------|
B|----------|
G|----------|
D|-2--------|
A|-2--------|
E|-0--------|


| /  slide up
| \  slide down
| h  hammer-on
| p  pull-off
| ~  vibrato
| +  harmonic
| x  Mute note

===============================================================================
Tap to rate this tab
# A B C D E F G H I J K L M N O P Q R S T U V W X Y Z