Song name
# A B C D E F G H I J K L M N O P Q R S T U V W X Y Z

Misc Unsigned Bands - Children Of The Healing Tree - 1 Nite Stand tab

Verse 1 (palm muted)
e-----------------------------------------------------------------|
B-----------------------------------------------------------------|
G-----------------------------------------------------------------|
D-5--x16----------------------------------------------------------| x2
A-3-------555--777--3--x8---555---777--3--x8--5--x16--------------|
E---------333--555--1-------333---555--1------3-------------------|

note: 2nd time, play last chord regularly instead of palm muted nd then go

e--------------------------|
B--------------------------|
G--------------------------|
D--------------------------|
A--9999999999999999--------|
E--7777777777777777--------|

Chorus

e--------------------------------------------------------|
B--------------------------------------------------------|
G--------------------------------------------------------|
D-10-------12-------8-------3-------5--------5---5-------|
A-10--x16--12--x16--8--x16--3--x16--5--x16---5---5-------|
E-8--------10-------6-------1-------3--------3---3-------|

Verse 2-same as verse 1 except no palm mute
Chorus

Solo
e----------------------------------------------------------------------------|
B--13-X16--------------------------------------------------------------------|
G----------12-14-10-10101010101010-12-14-10-101010101010-99-7777777777777777-|
D----------------------------------------------------------------------------|
A----------------------------------------------------------------------------|
E----------------------------------------------------------------------------|

e----------------------------------------------------------------------------|
B--13-x16--------------------------------------------------------------------|
G---------12-14-10-10101010101010-12-14-1010101010101010-99-7777777777777755-|
D----------------------------------------------------------------------------|
A----------------------------------------------------------------------------|
E----------------------------------------------------------------------------|

e-------------------------------------------------------------|
B-------------------------------------------------------------|
G--7777777777777755-7777777777777755--7-----------------------|
D-------------------------------------x-----------------------|
A-------------------------------------5-----------------------|
E-------------------------------------------------------------|

Verse 3-let bass play 1st half then guitar play normal verse
Chorus

2nd Solo

e-----------------------------------------------------------|
B-----------------------------------------------------------|
G-----------------------------------------------------------|
D-----------------------------------------------------------|
A--87878787878787810-x3--88888887-55555553------------------|
E-----------------------------------------------------------|

e-----------------------------------------------------------|
B-----------------------------------------------------------|
G--1091091091091091091091012-x3--10----99--7-----55--7------|
D--------------------------------x--x6-xx--x--x6-xx--x------|
A--------------------------------8-----77--5-----33--5------|
E-----------------------------------------------------------|

Verse
Chorus x2
End on C5
Tap to rate this tab
 
# A B C D E F G H I J K L M N O P Q R S T U V W X Y Z