Song name
# A B C D E F G H I J K L M N O P Q R S T U V W X Y Z

Misc Unsigned Bands - Wendy Austyn - Waiting Here For You tab

Guitar Tab verse/chorus/outro        
Repeat
e---------0--------------0--|---------------------------|
B--2--------3-2-0-----------|---------------------------|
G-----2-1---------2-1-2-----|---------------------------|
D---------------------------|---------------------------|
A---------------------------|---------------------------|
E---------------------------|---------------------------|

Bass Guitar
Repeat
No bass in Bridge
e---------------------------|---------------------------|
B---------------------------|---------------------------|
G---------------------------|---------------------------|
D---------------------------|---------------------------|
A--0--0--7--7--9--9--7--7---|---------------------------|
E---------------------------|---------------------------|


Bridge Guitar                   End of Bridge
repeat only to here ---------v
e----------------------------|------------------------------|
B-------2-----2-----3-----3--|--------5----5----5----5------|
G-----2-----2-----2-----2----|------2----2----2----2--------|
D---2-----2-----0-----0------|----0----0----0----0----------|
A----------------------------|------------------------------|
E----------------------------|------------------------------|

Song End and hold

e---------------------------|
B-----2---------------------|
G---------------------------|
D---------------------------|
A---------------------------|
E---------------------------|


The lyrics to help you get along

------------------------------------------------------

Plain white fences light yellow dresses hanging in the breeze
Cool sunrises you'll kiss my eyes there's nothing that can be

Pre-Chorus

Oh it’s a dream, you and me, it’s a dream” 

Chorus

I am waiting here for you, I hope you show up soon, 
I don't know what else to do but keep waiting here for you

Verse 2:

Beating hearts and walks through the park only midnight stars will see 
They’ll shine high and they’ll twinkle bright and one will fall on me 

Pre-Chorus

Oh it’s a dream, you and me, it’s a dream” 

Chorus

I am waiting here for you, I hope you show up soon, 
I don't know what else to do but keep waiting here for you

Bridge:

It's a cloudless night I'm just passing time 
I'll keep the light on, light on 
It's a lullaby from another life 
I'll keep the light on, light on

Chorus

I am waiting here for you, I hope you show up soon, 
I don't know what else to do but keep waiting here...

I am waiting here for you, I hope you show up soon, 
I don't know what else to do but keep waiting here for you

Outro:

Will I honor Gods solid blanket staring at the stars 
You'll tell me you'll love me forever and you'll steal my heart 
Tap to rate this tab
# A B C D E F G H I J K L M N O P Q R S T U V W X Y Z