Song name
# A B C D E F G H I J K L M N O P Q R S T U V W X Y Z

Misc Unsigned Bands - Consept - Numb tab

Artist: Consept
Album: Coming Soon 2009

Guitar 1: Drop B
Guitar 2: Drop B



Intro/Verse Guitar 1:

|------------------------------------------------------------|
|-----0------0-------0------0-------0-----0-------0-----0----|
|---5---5------5---5---5------5---5---5-----5---5---5-----5--|
|-3--------3-----5--------5----------------------------------|
|--------------------------------0------0------0------0------|
|------------------------------------------------------------|


Pre-Chorus Both Guitars:

|-----------------------------------|
|-----------------------------------|
|-----------------------------------|
|-3333333-5555555-2222222-3333333---| x2
|-3333333-5555555-2222222-3333333---|
|-3333333-5555555-2222222-3333333---|

Chorus Both Guitars:

|--------------------------------------------|
|--------------------------------------------|
|-55555555-55555555-22222222-77777777--------|
|-22222222-33333333-00000000-55555555--------| x2
|-00000000-33333333-00000000-55555555--------|
|----------33333333-00000000-55555555--------|

On Second Repeat Play this last after 5's

|----------|
|----------|
|-88888888-|
|-66666666-|
|-66666666-|
|-66666666-|

Verse 2:

Guitar 1-Repeat Intro/Verse
Guitar 2
|--------|
|--------|
|-----5--|
|-3-5-2--| Strum along with Guitar 1's plucking 
|-3-5-0--| (Palm Mute)
|-3-5----|

Bridge:

|----------------|
|----------------|
|-5--7--8--4-----|
|-3--5--6--2-----| x2
|-3--5--6--2-----|
|-3--5--6--2-----|

Solo will be arranged later

Arrangement:

Intro/Verse x6
Pre-Chorus
Chorus
Verse 2/Intro/Verse
Pre-Chorus
Chorus
Solo
Bridge
Pre-Chorus
Chorus
Tap to rate this tab
# A B C D E F G H I J K L M N O P Q R S T U V W X Y Z