Song name
# A B C D E F G H I J K L M N O P Q R S T U V W X Y Z

Misc Unsigned Bands - The Word Alive - The Devil Inside tab

This is my first time tabbing a song since this song has no tab. Sorry if its not 100% 
i only got the rythm parts
i am sure the notes are quite accurate the strumming u got to figure our them yourself 
is the best i can do for now =)

Title : The Devil Inside
Artist: The Word Alive

Drop D tunning


intro

e--------------------------|
B--------------------------|
G--------------------------|
D---8--7--5--8--10-10------|     X4
A---6--5--3--6--8--8-------|
D-00-00-00-00-00-----------|


e---
B---
G---
D-0~
A-0~
D-0~


Verse

e------------------------|
B------------------------|
G------------------------|    X2
D-8888888--5-5-5-5-5-----|
A-8888888--5-5-5-5-5-----|
D-8888888--5-5-5-5-5-----|

e-----------------------|
B-----------------------|
G-----------------------|
D-8888888--33333333-----|
A-8888888--33333333-----|    X2
D-8888888--33333333-----|

e----------------------|
B----------------------|
G----------------------|
D-8888888--5-5-5-5-5---|
A-8888888--5-5-5-5-5---|  X2
D-8888888--5-5-5-5-5---|

e-----------------|
B-----------------|
G-----------------|
D-000000---00--00-|   X4
A-000000---00--00-|
D-000000---00--00-|

e---------------------|
B---------------------|
G---------------------|
D-8888888--33333333---|  X2
A-8888888--33333333---|
D-8888888--33333333---|

chorus


e--------------------------------------|
B--------------------------------------|
G--------------------------------------|
D-0000000--33333333--55555555-88888888-|
A-0000000--33333333--55555555-88888888-|
D-0000000--33333333--55555555-88888888-|


e-------------------------------------------------------|
B--------8--10--11----10--8----------8--10--11----10--8-|
G------7---------------------7----7---------------------|
D-0~----------------------------------------------------|
A-0~----------------------------------------------------|
D-0~----------------------------------------------------|


e----------------------|
B----------------------|
G----------------------|
D-8888888--55555555----|   X2
A-8888888--55555555----|
D-8888888--55555555----|

  PM---------------


e-----------------|
B-----------------|
G-----------------|
D-000000---10--10-|   X4
A-000000---10--10-|
D-000000---8---8--|


e----------------------|
B----------------------|
G----------------------|
D-8888888--33333333----|   X2
A-8888888--33333333----|
D-8888888--33333333----|

e--------------------------------------|
B--------------------------------------|
G--------------------------------------|
D-0000000--33333333--55555555-88888888-|
A-0000000--33333333--55555555-88888888-|
D-0000000--33333333--55555555-88888888-|

e----------------------|
B----------------------|
G----------------------|
D---8--7--5--8--10-10--| X4
A---6--5--3--6--8--8---|
D-00-00-00-00-00-------|

e-----------------|
B-----------------|
G-----------------|
D-000000---00--00-|   X4
A-000000---00--00-|
D-000000---00--00-|

tab by Ming from singapore  =)
did this for my band so we can jam this song
Tap to rate this tab
 
# A B C D E F G H I J K L M N O P Q R S T U V W X Y Z