Guitaretab - guitar tabs
Song name
# A B C D E F G H I J K L M N O P Q R S T U V W X Y Z

Misc Unsigned Bands - Spitty Angels Fire - Hey You Hello tab

HEY YOU, HELLO
SPITTY ANGEL'S FIRE

TUNING:
Guitar 1 : Drop D     (DADGBe)
Guitar 2 : Open D 5th (DADADD)

NOTATIONS:
:  Let Ring
/  Slide
PM Palm Mute
X  Mute String
b  Bend
v  Vibrate
*  Natural Harmonic


INTRO: 

Guitar 1 (Acoustic):

e:-----------------------------------------------------------------|
B:-----------------------------------------------------------------|
G:-----------------------------------------------------------------|
D:----11h12-11-11--7-7------11h12-11-11--12-12----11-11h12-11-11/7-|
A:---9--------------------9----------------------------------------|
D:-0----------0--0------0-----------0--0---0-----9--9-----9--9-----|

e:-----------------------------------------------------------------|
B:-----------------------------------------------------------------|
G:-----------------------------------------------------------------|
D:--7-7h9-5-5h7-7--7:----------------------------------------------|
A:-----------------4:----------------------------------------------|
D:-5-5-------------4:----------------------------------------------|

After the first drum break kicks in:

Guitar 1 (Distorted):

e:-----------------------------------------------------------------|
B:-----------------------------------------------------------------|
G:-7-/-9-9-/-11-/-9-/-7-7-7-7-6-/-7-7------------------------------|
D:-x---x-x----x---x---x-x-x-x-x---x-x------------------------------|
A:-5-/-7-7-/--9-/-7-/-5-5-5-5-4-/-5-5------------------------------|
D:-----------------------------------------------------------------|

e:-----------------------------------------------------------------|
B:-----------------------------------------------------------------|
G:-7-/-9-9-/-11-/-9-9-9-9-14-14-14---------------------------------|
D:-x---x-x----x---x-x-x-x--x--x--x---------------------------------|
A:-5-/-7-7-/--9-/-7-7-7-7-12-12-12---------------------------------|
D:-----------------------------------------------------------------|

e:-----------------------------------------------------------------|
B:-----------------------------------------------------------------|
G:-16-16-16-16-16-16-16-16-16-16-18-19-----------------------------|
D:--x--x--x--x--x--x--x--x--x--x--x--x-----------------------------|
A:-14-14-14-14-14-14-14-14-14-14-16-17-----------------------------|
D:-----------------------------------------------------------------|

e:-----------------------------------------------------------------|
B:-----------------------------------------------------------------|
G:-21-21-21-21-21-21-21-21-21-21-21-21-21-21-7:--------------------|
D:--x--x--x--x--x--x--x--x--x--x--x--x--x--x-7:--------------------|
A:-19-19-19-19-19-19-19-19-19-19-19-19-19-19-5:--------------------|
D:-------------------------------------------0:--------------------|

Guitar 2 (Distorted):

D:-0-0-0-0-0-0-0-0-0-0-0-0--0--0--0--0--0--0-0-0-0-0-0-0-----------|
D:-0-0-0-0-0-0-0-0-0-0-0-0--0--0--0--0--0--0-0-0-0-0-0-0-----------|
A:-5-5-5-5-5-5-0-0-0-0-0-0--0--0--0--0--0--0-0-0-0-0-0-0-----------|
D:-7-7-7-7-7-7-7-7-7-7-7-7-11-11-12-12-11-11-7-7-7-7-7-7-----------|
A:-5-5-5-5-5-5-7-7-7-7-7-7--9--9--9--9--9--9-5-5-5-5-5-5-----------|
D:-0-0-0-0-0-0-7-7-7-7-7-7--9--9--9--9--9--9-5-5-5-5-5-5-----------|


VERSE 1:

Guitar 1 (Acoustic):

e:-------------0---------------------------------------------------|
B:-----------------------------------------------------------------|
G:-----2--------------2----2-0-------------------------------------|
D:---4------4-------4----------------------------------------------|
A:-5------4-------2------0-----------------------------------------|
D:-----------------------------------------------------------------|

Guitar 2 (Acoustic):

D:-0-0-0-0-0-0--0--0--0--0--0--0--0--0--0--0--0--0-0-0-0-0-0-0-----|
D:-0-0-0-0-0-0--0--0--0--0--0--0--0--0--0--0--0--0-0-0-0-0-0-0-----|
A:-0-0-0-0-0-0--0--0--0--0--0--0--0--0--0--0--0--0-0-0-0-0-0-0-----|
D:-7-7-7-7-7-7-11-11-11-11-11-11-11-11-12-12-11-11-7-7-7-7-7-7-----|
A:-5-5-5-5-5-5--9--9—-9--9--9--9--9--9--9--9--9--9-5-5-5-5-5-5-----|
D:-0-0-0-0-0-0--0--0--0--0--0--0--9--9--9--9--9--9-5-5-5-5-5-5-----|

Guitar 1 (Acoustic):

e:-----------------------------------------------------------------|
B:-----------------------------------------------------------------|
G:-----------------------------------------------------------------|
D:----11h12-11-11--7-7------11h12-11-11--12-12----11-11h12-11-11/7-|
A:---9--------------------9----------------------------------------|
D:-0----------0--0------0-----------0--0---0-----9--9-----9--9-----|

e:-----------------------------------------------------------------|
B:-----------------------------------------------------------------|
G:-----------------------------------------------------------------|
D:--7-7h9-5-5h7-7--------------------------------------------------|
A:-----------------------------------------------------------------|
D:-5-5-------------------------------------------------------------|

Guitar 2 (Acoustic):

D:-0-0-0-0-0-0--0--0--0--0--0--0--0--0--0--0--0--0-0-0-0-0-0-0-----|
D:-0-0-0-0-0-0--0--0--0--0--0--0--0--0--0--0--0--0-0-0-0-0-0-0-----|
A:-0-0-0-0-0-0--0--0--0--0--0--0--0--0--0--0--0--0-0-0-0-0-0-0-----|
D:-7-7-7-7-7-7-11-11-11-11-11-11-11-11-12-12-11-11-7-7-7-7-7-7-----|
A:-5-5-5-5-5-5--9--9—-9--9--9--9--9--9--9--9--9--9-5-5-5-5-5-5-----|
D:-0-0-0-0-0-0--0--0--0--0--0--0--9--9--9--9--9--9-5-5-5-5-5-5-----|


PRE-CHORUS:

Guitar 1 (Distorted):

  |--PM--|     |--PM--|    |--PM--|    |--PM--|
e:-----------------------------------------------------------------|
B:-----------------------------------------------------------------|
G:---------7-----------7-----------7-----------7-------------------|
D:-----------7-----------7-----------7-----------7-----------------|
A:-4-4-4-4-----4-4-4-4-----5-5-5-5-----5-5-5-5---------------------|
D:-4-4-4-4-----4-4-4-4-----5-5-5-5-----5-5-5-5---------------------|

Guitar 2 (Distorted):

   |----------------------------PM--------------------------------|
D:-----------------------------------------------------------------|
D:-----------------------------------------------------------------|
A:-----------------------------------------------------------------|
D:-----------------------------------------------------------------|
A:-4-4-4-4-4-4-4-4-4-4-4-4-4-4-4-4-5-5-5-5-5-5-5-5-5-5-5-5-5-5-5-5-|
D:-4-4-4-4-4-4-4-4-4-4-4-4-4-4-4-4-5-5-5-5-5-5-5-5-5-5-5-5-5-5-5-5-|

Guitar 1 (Distorted):

e:-----------------------------------------------------------------|
B:-----------------------------------------------------------------|
G:-7-/-9-/-7-7-7-7-7-7-7--7-/-11-/-7-7-7-7-7-----------------------|
D:-x---x---x-x-x-x-x-x-x--x----x---x-x-x-x-x-----------------------|
A:-5-/-7-/-5-5-5-5-5-5-5--5-/--9-/-5-5-5-5-5-----------------------|
D:-0-/-0-/-0-0-0-0-0-0-0--0----0---0-0-0-0-0-7-5-0-----------------|

Guitar 2 (Distorted):

D:-0-0-0-0-0-0-0-0-0-0-0-0-0---------------------------------------|
D:-0-0-0-0-0-0-0-0-0-0-0-0-0---------------------------------------|
A:-0-0-0-0-5-5-0-0-0-0-0-5-5---------------------------------------|
D:-0-0-0-0-0-0-0-0-0-0-0-0-0---------------------------------------|
A:-0-0-0-0-5-5-0-0-0-0-0-5-5---------------------------------------|
D:-0-0-0-0-0-0-0-0-0-0-0-0-0---------------------------------------|

Guitar 1 (Distorted):

  |--PM--|     |--PM--|    |--PM--|    |--PM--|
e:-----------------------------------------------------------------|
B:-----------------------------------------------------------------|
G:---------7-----------7-----------7-----------7-------------------|
D:-----------7-----------7-----------7-----------7-----------------|
A:-4-4-4-4-----4-4-4-4-----5-5-5-5-----5-5-5-5---------------------|
D:-4-4-4-4-----4-4-4-4-----5-5-5-5-----5-5-5-5---------------------|

Guitar 2 (Distorted):

   |----------------------------PM--------------------------------|
D:-----------------------------------------------------------------|
D:-----------------------------------------------------------------|
A:-----------------------------------------------------------------|
D:-----------------------------------------------------------------|
A:-4-4-4-4-4-4-4-4-4-4-4-4-4-4-4-4-5-5-5-5-5-5-5-5-5-5-5-5-5-5-5-5-|
D:-4-4-4-4-4-4-4-4-4-4-4-4-4-4-4-4-5-5-5-5-5-5-5-5-5-5-5-5-5-5-5-5-|

Guitar 1 (Distorted):

e:-----------------------------------------------------------------|
B:-----------------------------------------------------------------|
G:-7-/-9-/-7-7-7-7-7-7-7--7-7-/-11-11-11-11-11---------------------|
D:-x---x---x-x-x-x-x-x-x--x-x----x--x--x--x--x---------------------|
A:-5-/-7-/-5-5-5-5-5-5-5--5-5-/--9--9--9--9--9-4b5-----------------|
D:-0-/-0-/-0-0-0-0-0-0-0--0-0----0--0--0--0--0---------------------|

Guitar 2 (Distorted):

D:-0-0-0-0-0-0-0-0-0-0-0-0-0---------------------------------------|
D:-0-0-0-0-0-0-0-0-0-0-0-0-0---------------------------------------|
A:-0-0-0-0-5-5-0-0-0-0-0-5-5---------------------------------------|
D:-0-0-0-0-0-0-0-0-0-0-0-0-0---------------------------------------|
A:-0-0-0-0-5-5-0-0-0-0-0-5-5---------------------------------------|
D:-0-0-0-0-0-0-0-0-0-0-0-0-0---------------------------------------|


CHORUS:

Guitar 1 (Distorted):

e:-----------------------------------------------------------------|
B:-----------------------------------------------------------------|
G:-7-7-7-7-7-7-7-7-14-14-14-14-14-14-14-14-4-4-4-4-4-/-6-6-6-/-7-7-|
D:-x-x-x-x-x-x-x-x--x--x--x--x--x--x--x--x-x-x-x-x-x---x-x-x---x-x-|
A:-5-5-5-5-5-5-5-5-12-12-12-12-12-12-12-12-2-2-2-2-2-/-4-4-4-/-5-5-|
D:-0-0-0-0-0-0-0-0-------------------------------------------------|

e:-----------------------------------------------------------------|
B:-----------------------------------------------------------------|
G:-7-7-6-6-6-14-14-14-14-12-12-12-12-11-11-11-11-9-9-9-9-----------|
D:-x-x-x-x-x--x--x--x--x--x--x--x--x--x--x--x--x-x-x-x-x-----------|
A:-5-5-4-4-4-12-12-12-12-10-10-10-10--9--9--9--9-7-7-7-7-----------|
D:-----------------------------------------------------------------|

Guitar 2 (Distorted):

D:-0-0-0-0-0-0-0-0-0-0-0-0--0--0--0--0--0--0-0-0-0-0-0-0-----------|
D:-0-0-0-0-0-0-0-0-0-0-0-0--0--0--0--0--0--0-0-0-0-0-0-0-----------|
A:-5-5-5-5-5-5-0-0-0-0-0-0--0--0--0--0--0--0-0-0-0-0-0-0-----------|
D:-7-7-7-7-7-7-7-7-7-7-7-7-11-11-12-12-11-11-7-7-7-7-7-7-----------|
A:-5-5-5-5-5-5-7-7-7-7-7-7--9--9--9--9--9--9-5-5-5-5-5-5-----------|
D:-0-0-0-0-0-0-7-7-7-7-7-7--9--9--9--9--9--9-5-5-5-5-5-5-----------|

Guitar 1 (Distorted):

e:-----------------------------------------------------------------|
B:-----------------------------------------------------------------|
G:-9-/-7-7-7-7-7-7-7-9-/-7-7-7-11-11-11-11-11-12-11-9--------------|
D:-x---x-x-x-x-x-x-x-x---x-x-x--x--x--x--x--x--x--x-x--------------|
A:-7-/-5-5-5-5-5-5-5-7-/-5-5-5--9--9--9--9--9-10--9-7-7b9:---------|
D:-----------------------------------------------------------------|

e:-----------------------------------------------------------------|
B:-----------------------------------------------------------------|
G:-11-9-12-11-11-/-9-7-7-------------------------------------------|
D:--x-x--x--x--x---x-x-x-------------------------------------------|
A:--9-7-10--9--9-/-7-5-5-------------------------------------------|
D:-----------------------------------------------------------------|

Guitar 2 (Distorted):

D:-0-0-0-0-0-0-0-0-0-0-0-0--0--0--0--0--0--0-0-0-0-0-0-0-----------|
D:-0-0-0-0-0-0-0-0-0-0-0-0--0--0--0--0--0--0-0-0-0-0-0-0-----------|
A:-5-5-5-5-5-5-0-0-0-0-0-0--0--0--0--0--0--0-0-0-0-0-0-0-----------|
D:-7-7-7-7-7-7-7-7-7-7-7-7-11-11-12-12-11-11-7-7-7-7-7-7-----------|
A:-5-5-5-5-5-5-7-7-7-7-7-7--9--9--9--9--9--9-5-5-5-5-5-5-----------|
D:-0-0-0-0-0-0-7-7-7-7-7-7--9--9--9--9--9--9-5-5-5-5-5-5-----------|


PRE-VERSE INTRO

Guitar 1 (Distorted):

e:-----------------------------------------------------------------|
B:-----------------------------------------------------------------|
G:-7-/-9-9-/-11-/-9-/-7-7-7-7-6-/-7-7------------------------------|
D:-x---x-x----x---x---x-x-x-x-x---x-x------------------------------|
A:-5-/-7-7-/--9-/-7-/-5-5-5-5-4-/-5-5------------------------------|
D:-----------------------------------------------------------------|

e:-----------------------------------------------------------------|
B:-----------------------------------------------------------------|
G:-7-/-9-9-/-11-/-9-9-9-9-14-14-14---------------------------------|
D:-x---x-x----x---x-x-x-x--x--x--x---------------------------------|
A:-5-/-7-7-/--9-/-7-7-7-7-12-12-12---------------------------------|
D:-----------------------------------------------------------------|

e:-----------------------------------------------------------------|
B:-----------------------------------------------------------------|
G:-16-16-16-16-16-16-16-16-16-16-18-19-----------------------------|
D:--x--x--x--x--x--x--x--x--x--x--x--x-----------------------------|
A:-14-14-14-14-14-14-14-14-14-14-16-17-----------------------------|
D:-----------------------------------------------------------------|


e:-----------------------------------------------------------------|
B:-----------------------------------------------------------------|
G:-21-21-21-21-21-21-21-21-21-21-21-21-21-21-12-/-7:---------------|
D:--x--x--x--x--x--x--x--x--x--x--x--x--x--x-----------------------|
A:-19-19-19-19-19-19-19-19-19-19-19-19-19-19-----------------------|
D:-----------------------------------------------------------------|

Guitar 2 (Distorted):

D:-0-0-0-0-0-0-0-0-0-0-0-0--0--0--0--0--0--0-0-0-0-0-0-0-----------|
D:-0-0-0-0-0-0-0-0-0-0-0-0--0--0--0--0--0--0-0-0-0-0-0-0-----------|
A:-5-5-5-5-5-5-0-0-0-0-0-0--0--0--0--0--0--0-0-0-0-0-0-0-----------|
D:-7-7-7-7-7-7-7-7-7-7-7-7-11-11-12-12-11-11-7-7-7-7-7-7-----------|
A:-5-5-5-5-5-5-7-7-7-7-7-7--9--9--9--9--9--9-5-5-5-5-5-5-----------|
D:-0-0-0-0-0-0-7-7-7-7-7-7--9--9--9--9--9--9-5-5-5-5-5-5-----------|


VERSE 2:

Guitar 1 (Acoustic):

e:-------------0---------------------------------------------------|
B:-----------------------------------------------------------------|
G:-----2--------------2----2-0-------------------------------------|
D:---4------4-------4----------------------------------------------|
A:-5------4-------2------0-----------------------------------------|
D:-----------------------------------------------------------------|

Guitar 2 (Acoustic):
Enter from “The bird who tried to fly”

D:--0--0--0--0--0--0-0-0-0-0-0-0-----------------------------------|
D:--0--0--0--0--0--0-0-0-0-0-0-0-----------------------------------|
A:--0--0--0--0--0--0-0-0-0-0-0-0-----------------------------------|
D:-11-11-12-12-11-11-7-7-7-7-7-7-----------------------------------|
A:--9--9--9--9--9--9-5-5-5-5-5-5-----------------------------------|
D:--9--9--9--9--9--9-5-5-5-5-5-5-----------------------------------|

Guitar 1 (Distorted):

  |----------------------------PM--------------------------------|
e:-----------------------------------------------------------------|
B:-----------------------------------------------------------------|
G:-----------------------------------------------------------------|
D:-----7-5-4-----7-5-4-----7-5-4-----7-5-4-----7-5-4-----7-5-4-----|
A:-5-5-------5-5-------5-5-------5-5-------2-2-------2-2-----------|
D:-----------------------------------------------------------------|

  |--------PM---------|
e:-----------------------------------------------------------------|
B:-----------------------------------------------------------------|
G:-----------------------------------------------------------------|
D:-----7-5-4-----7-5-4---------------------------------------------|
A:-5-5-------5-5---------------------------------------------------|
D:-----------------------------------------------------------------|

Guitar 2 (Acoustic):

D:-0-0-0-0-0-0--0--0--0--0--0--0--0--0--0--0--0--0-0-0-0-0-0-0-----|
D:-0-0-0-0-0-0--0--0--0--0--0--0--0--0--0--0--0--0-0-0-0-0-0-0-----|
A:-0-0-0-0-0-0--0--0--0--0--0--0--0--0--0--0--0--0-0-0-0-0-0-0-----|
D:-7-7-7-7-7-7-11-11-11-11-11-11-11-11-12-12-11-11-7-7-7-7-7-7-----|
A:-5-5-5-5-5-5--9--9—-9--9--9--9--9--9--9--9--9--9-5-5-5-5-5-5-----|
D:-0-0-0-0-0-0--0--0--0--0--0--0--9--9--9--9--9--9-5-5-5-5-5-5-----|



PRE-CHORUS 2:
[ Tab from: http://www.guitaretab.com/m/misc-unsigned-bands/113425.html ]
Guitar 1 (Distorted):
Play this twice, and tap instead of hammer-ons :

e:-----------------------------------------------------------------|
B:-----------------------------------------------------------------|
G:-6h7-6h7-6h7-6h7-6h7-6h7-6h7-6h7-6h7-6h7-------------------------|
D:-----------------------------------------------------------------|
A:-----------------------------------------------------------------|
D:-----------------------------------------------------------------|

Guitar 2 (Acoustic):

D:-----------------------------------------------------------------|
D:-----------------------------------------------------------------|
A:------------5:---------------------------------------------------|
D:-7:---------5:---------------------------------------------------|
A:-4:---------5:---------------------------------------------------|
D:-4:---------5:---------------------------------------------------|


CHORUS:

Guitar 1 (Distorted):

e:-----------------------------------------------------------------|
B:-----------------------------15----------------------------------|
G:-7-7-7-7-7-7-7-7----------12----14v/-4-4-4-4-4-/-6-6-6-/-7-7-7-7-|
D:-x-x-x-x-x-x-x-x-12h13h14------------x-x-x-x-x---x-x-x---x-x-x-x-|
A:-5-5-5-5-5-5-5-5---------------------2-2-2-2-2-/-4-4-4-/-5-5-5-5-|
D:-0-0-0-0-0-0-0-0-------------------------------------------------|

e:-----------------------------------------------------------------|
B:-----------------------------------------------------------------|
G:-6-6-6-14-14-14-14-12-12-12-12-11-11-11-11-9-9-9-9---------------|
D:-x-x-x--x--x--x--x--x--x--x--x--x--x--x--x-x-x-x-x---------------|
A:-4-4-4-12-12-12-12-10-10-10-10--9--9--9--9-7-7-7-7---------------|
D:-----------------------------------------------------------------|

Guitar 2 (Distorted):

D:-0-0-0-0-0-0-0-0-0-0-0-0--0--0--0--0--0--0-0-0-0-0-0-0-----------|
D:-0-0-0-0-0-0-0-0-0-0-0-0--0--0--0--0--0--0-0-0-0-0-0-0-----------|
A:-5-5-5-5-5-5-0-0-0-0-0-0--0--0--0--0--0--0-0-0-0-0-0-0-----------|
D:-7-7-7-7-7-7-7-7-7-7-7-7-11-11-12-12-11-11-7-7-7-7-7-7-----------|
A:-5-5-5-5-5-5-7-7-7-7-7-7--9--9--9--9--9--9-5-5-5-5-5-5-----------|
D:-0-0-0-0-0-0-7-7-7-7-7-7--9--9--9--9--9--9-5-5-5-5-5-5-----------|

Guitar 1 (Distorted):

e:-----------------------------------------------------------------|
B:-----------------------------------------------------------------|
G:-9-/-7-7-7-7-7-7-7-9-/-7-7-7-11-11-11-11-11-12-11-9--------------|
D:-x---x-x-x-x-x-x-x-x---x-x-x--x--x--x--x--x--x--x-x--------------|
A:-7-/-5-5-5-5-5-5-5-7-/-5-5-5--9--9--9--9--9-10--9-7-7b9:---------|
D:-----------------------------------------------------------------|

e:-----------------------------------------------------------------|
B:-----------------------------------------------------------------|
G:-11-9-12-11-11-/-9-7-7-------------------------------------------|
D:--x-x--x--x--x---x-x-x-------------------------------------------|
A:--9-7-10--9--9-/-7-5-5-------------------------------------------|
D:-----------------------------------------------------------------|

Guitar 2 (Distorted):

D:-0-0-0-0-0-0-0-0-0-0-0-0--0--0--0--0--0--0-0-0-0-0-0-0-----------|
D:-0-0-0-0-0-0-0-0-0-0-0-0--0--0--0--0--0--0-0-0-0-0-0-0-----------|
A:-5-5-5-5-5-5-0-0-0-0-0-0--0--0--0--0--0--0-0-0-0-0-0-0-----------|
D:-7-7-7-7-7-7-7-7-7-7-7-7-11-11-12-12-11-11-7-7-7-7-7-7-----------|
A:-5-5-5-5-5-5-7-7-7-7-7-7--9--9--9--9--9--9-5-5-5-5-5-5-----------|
D:-0-0-0-0-0-0-7-7-7-7-7-7--9--9--9--9--9--9-5-5-5-5-5-5-----------|


BRIDGE:

Guitar 1 (Distorted):

e:-----------------------------------------------------------------|
B:---------------------------------------14-14-14-14-14------------|
G:-7-/-9-9-/-11-/-9-/-7-7-7-7-6-/-7-7------------------------------|
D:-x---x-x----x---x---x-x-x-x-x---x-x-12-12-12-12-12-12------------|
A:-5-/-7-7-/--9-/-7-/-5-5-5-5-4-/-5-5-12-12-12-12-12-12------------|
D:------------------------------------12-12-12-12-12-12------------|

Guitar 2 (Distorted):

D:-------------------------------------0--0--0-x--0--0-------------|
D:-------------------------------------0--0--0-x--0--0-------------|
A:-------------------------------------0--0--0-x--0--0-------------|
D:-11-11-11-11-12-12-12-12-11-11-11---12-12-12-x-12-12-------------|
A:--9--9--9--9--9--9--9--9--9--9--9---12-12-12-x-12-12-------------|
D:--9--9--9--9--9--9--9--9--9--9--9-/-12-12-12-x-12-12-------------|

Guitar 1 (Distorted):
“You and I, we Just can’t define”

e:-14-------14--------12-------12-------12----12-------------------|
B:----15-------15--------15-------15-------------------------------|
G:-------14-------14--------14-------14----14-----14---------------|
D:-----------------------------------------------------------------|
A:-----------------------------------------------------------------|
D:-----------------------------------------------------------------|

e:-14-------14--------15-------15-------12----14-------------------|
B:----15-------15--------------------------------------------------|
G:-------14-------14-----14-14----14-14----14----14----------------|
D:-----------------------------------------------------------------|
A:-----------------------------------------------------------------|
D:-----------------------------------------------------------------|

Guitar 2 (Distorted):

D:-----------------------------------------------------------------|
D:-----------------------------------------------------------------|
A:-----------------------------------------------------------------|
D:-12-12--7-7--9-9-9-9-5-5-5-5-5-/-7-/-5-5-5-----------------------|
A:-12-12--7-7--9-9-9-9-5-5-5-5-5-/-7-/-5-5-5-----------------------|
D:-12-12--7-7--9-9-9-9-5-5-5-5-5-/-7-/-5-5-5-----------------------|

Guitar 1 (Distorted):
“When we’re together, we’re lost in time”

e:-14-------14--------12-------12-------12----12-------------------|
B:----15-------15--------15-------15-------------------------------|
G:-------14-------14--------14-------14----14-----14---------------|
D:-----------------------------------------------------------------|
A:-----------------------------------------------------------------|
D:-----------------------------------------------------------------|

e:-----------------------------------------------------------------|
B:-----------------------------------------------------------------|
G:-9-/-11-11-11-11-/-12-12-12-12-/-14-14-14-14-/-15-15-15----------|
D:-x----x--x--x--x----x--x--x--x----x--x--x--x----x--x--x----------|
A:-7-/--9--9--9--9-/-10-10-10-10-/-12-12-12-12-/-14-14-14----------|
D:-----------------------------------------------------------------|

Guitar 2 (Distorted):

D:-----------------------------------------------------------------|
D:-----------------------------------------------------------------|
A:-----------------------------------------------------------------|
D:-12-12-12-12-7-7-7-7-7-7-/-9--5-5-5-5-5-5-5-5-5-5----------------|
A:-12-12-12-12-7-7-7-7-7-7-/-9--5-5-5-5-5-5-5-5-5-5----------------|
D:-12-12-12-12-7-7-7-7-7-7-/-9--5-5-5-5-5-5-5-5-5-5----------------|

Guitar 1 (Distorted):
“Let’s take this place, let’s take this world”

e:-----------------------------------------------------------------|
B:-----------15----15----15----15----------------------------------|
G:--------------11----11----12----12-------------------------------|
D:-12-/-5-7:-------------------------------------------------------|
A:-12-/-5-7:-------------------------------------------------------|
D:-12-/-5—7:-------------------------------------------------------|

Guitar 2 (Distorted):

D:-----------------------------------------------------------------|
D:-----------------------------------------------------------------|
A:-----------------------------------------------------------------|
D:-12-12-12-12-7:--9-9-9-9-5-5-5-5---------------------------------|
A:-12-12-12-12-7:--9-9-9-9-5-5-5-5---------------------------------|
D:-12-12-12-12-7:--9-9-9-9-5-5-5-5---------------------------------|

Guitar 1 (Distorted):
“And make it ours, our very own”

e:-----------------------------------------------------------------|
B:-15----15----15----15----15----15----15----15----15----15--------|
G:----11----11----12----12----11----11----12----12----14----14-----|
D:-----------------------------------------------------------------|
A:-----------------------------------------------------------------|
D:-----------------------------------------------------------------|

e:-----------------------------------------------------------------|
B:-15----15--------------------------------------------------------|
G:----14----14-----------------------------------------------------|
D:-----------------------------------------------------------------|
A:-----------------------------------------------------------------|
D:-----------------------------------------------------------------|

Guitar 2 (Distorted):

D:-----------------------------------------------------------------|
D:-----------------------------------------------------------------|
A:-----------------------------------------------------------------|
D:-11-11-11-11-7-7-7-7-7-7-7-7-7-7-9-9-9-9-9-----------------------|
A:--9--9--9--9-5-5-5-5-5-5-5-5-5-5-5-5-5-5-5-*PICK-SLIDE*----------|
D:--9--9--9--9-5-5-5-5-5-5-5-5-5-5-5-5-5-5-5-----------------------|


POST BRIDGE INTERLUDE:

Guitar 1 (Distorted):

e:-----------------------------------------------------------------|
B:-----------------------------------------------------------------|
G:-7-/-9-9-/-11-/-9-/-7-7-7-7-6-/-7-7------------------------------|
D:-x---x-x----x---x---x-x-x-x-x---x-x------------------------------|
A:-5-/-7-7-/--9-/-7-/-5-5-5-5-4-/-5-5------------------------------|
D:-----------------------------------------------------------------|

e:-----------------------------------------------------------------|
B:-----------------------------------------------------------------|
G:-7-/-9-9-/-11-/-9-9-9-9-14-14-14---------------------------------|
D:-x---x-x----x---x-x-x-x--x--x--x---------------------------------|
A:-5-/-7-7-/--9-/-7-7-7-7-12-12-12---------------------------------|
D:-----------------------------------------------------------------|

Guitar 2 (Distorted):

D:-----------------------------------------------------------------|
D:-----------------------------------------------------------------|
A:-7-/-9-/-12-/-9-9-9-9-9-12-12-12---------------------------------|
D:-x---x----x---x-x-x-x-x--x--x--x---------------------------------|
A:-7-/-9-/-12-/-9-9-9-9-9-12-12-12---------------------------------|
D:-----------------------------------------------------------------|


SOLO:

Guitar 1 (Distorted):

e:-----------------------------------------------------------------|
B:-----------------------------------------------------------------|
G:----------------------11-----------------------------------------|
D:-12v-11h12v-14-12v-------14-12-11v-11h12-11h12-11h12-9v----------|
A:-------------------12--------------------------------------------|
D:-----------------------------------------------------------------|

                           |THIS EXTRA PART IS PLAYED LIVE @ THE END
e:-------------------------|---------------------------------------|
B:-------------------------|---------------------------------------|
G:- 11h12-11h12-12/14------|---------------------------------------|
D:--------------------12v--|-14b16-12v-----------------------------|
A:-------------------------|---------------------------------------|
D:-------------------------|---------------------------------------|

Guitar 2 (Distorted):

D:-0-0-0-0-0-0-0-0-0-0-0-0--0--0--0--0--0--------------------------|
D:-0-0-0-0-0-0-0-0-0-0-0-0--0--0--0--0--0--------------------------|
A:-5-5-5-5-5-5-0-0-0-0-0-0--0--0--0--0--0--------------------------|
D:-7-7-7-7-7-7-7-7-7-7-7-7-11-11-12-12-11--------------------------|
A:-5-5-5-5-5-5-7-7-7-7-7-7--9--9--9--9--9--------------------------|
D:-0-0-0-0-0-0-7-7-7-7-7-7--9--9--9--9--9--------------------------|


FINAL CHORUS:

Guitar 1 (Distorted):

e:-----------------------------------------------------------------|
B:-----------------------------------------------------------------|
G:-7-7-7-7-7-7-7-7-14-14-14-14-14-14-14-14-4-4-4-4-4-/-6-6-6-/-7-7-|
D:-x-x-x-x-x-x-x-x--x--x--x--x--x--x--x--x-x-x-x-x-x---x-x-x---x-x-|
A:-5-5-5-5-5-5-5-5-12-12-12-12-12-12-12-12-2-2-2-2-2-/-4-4-4-/-5-5-|
D:-0-0-0-0-0-0-0-0-------------------------------------------------|

e:-----------------------------------------------------------------|
B:-----------------------------------------------------------------|
G:-7-7-6-6-6-14-14-14-14-12-12-12-12-11-11-11-11-9-9-9-9-----------|
D:-x-x-x-x-x--x--x--x--x--x--x--x--x--x--x--x--x-x-x-x-x-----------|
A:-5-5-4-4-4-12-12-12-12-10-10-10-10--9--9--9--9-7-7-7-7-----------|
D:-----------------------------------------------------------------|

Guitar 2 (Distorted):

D:-0-0-0-0-0-0-0-0-0-0-0-0--0--0--0--0--0--0-0-0-0-0-0-0-----------|
D:-0-0-0-0-0-0-0-0-0-0-0-0--0--0--0--0--0--0-0-0-0-0-0-0-----------|
A:-5-5-5-5-5-5-0-0-0-0-0-0--0--0--0--0--0--0-0-0-0-0-0-0-----------|
D:-7-7-7-7-7-7-7-7-7-7-7-7-11-11-12-12-11-11-7-7-7-7-7-7-----------|
A:-5-5-5-5-5-5-7-7-7-7-7-7--9--9--9--9--9--9-5-5-5-5-5-5-----------|
D:-0-0-0-0-0-0-7-7-7-7-7-7--9--9--9--9--9--9-5-5-5-5-5-5-----------|

Guitar 1 (Distorted):
Play twice

e:-----------------------------------------------------------------|
B:-----------------------------------------------------------------|
G:-14-14-14-14-14-14-14-14-14-14-14-14-14-18-19-19-19-19-19-19-19--|
D:--x--x--x--x--x--x--x--x--x--x--x--x--x--x--x--x--x--x--x--x--x--|
A:-12-12-12-12-12-12-12-12-12-12-12-12-12-16-17-17-17-17-17-17-17--|
D:-----------------------------------------------------------------|

e:-----------------------------------------------------------------|
B:-----------------------------------------------------------------|
G:-19-19-19-19-19-19-19-18-11-11-11-11-11-11-11-11-11-11-11-11-12--|
D:--x--x--x--x--x--x--x--x--x--x--x--x--x--x--x--x--x--x--x--x--x--|
A:-17-17-17-17-17-17-17-16--9--9--9--9--9--9--9--9--9--9--9--9-10--|
D:-----------------------------------------------------------------|

e:-----------------------------------------------------------------|
B:-----------------------------------------------------------------|
G:-14-/-16-16-/-14-11-12-11-9-9-9----------------------------------|
D:--x----x--x----x--x--x--x-x-x-x----------------------------------|
A:-12-/-14-14-/-12--9-10--9-7-7-7----------------------------------|
D:-----------------------------------------------------------------|

Guitar 2 (Distorted):
Play twice

D:-0-0-0-0-0-0-0-0-0-0-0-0--0--0--0--0--0--0-0-0-0-0-0-0-----------|
D:-0-0-0-0-0-0-0-0-0-0-0-0--0--0--0--0--0--0-0-0-0-0-0-0-----------|
A:-5-5-5-5-5-5-0-0-0-0-0-0--0--0--0--0--0--0-0-0-0-0-0-0-----------|
D:-7-7-7-7-7-7-7-7-7-7-7-7-11-11-12-12-11-11-7-7-7-7-7-7-----------|
A:-5-5-5-5-5-5-7-7-7-7-7-7--9--9--9--9--9--9-5-5-5-5-5-5-----------|
D:-0-0-0-0-0-0-7-7-7-7-7-7--9--9--9--9--9--9-5-5-5-5-5-5-----------|

Guitar 1 (Distorted):

e:-----------------------------------------------------------------|
B:-----------------------------------------------------------------|
G:-7-7-7-7-7-7-7-7-7-9-9-9-9-9-9-9-9-------------------------------|
D:-x-x-x-x-x-x-x-x-x-x-x-x-x-x-x-x-x-------------------------------|
A:-5-5-5-5-5-5-5-5-5-7-7-7-7-7-7-7-7-------------------------------|
D:-----------------------------------------------------------------|

Guitar 2 (Distorted):

D:-----------------------------------0:----------------------------|
D:-----------------------------------0:----------------------------|
A:-----------------------------------0:----------------------------|
D:-7-7-7-7-7-7-7-7-7-9-9-9-9-9-9-9-9-0:----------------------------|
A:-5-5-5-5-5-5-5-5-5-5-5-5-5-5-5-5-5-0:----------------------------|
D:-5-5-5-5-5-5-5-5-5-5-5-5-5-5-5-5-5-0:----------------------------|

Guitar 1 (Distorted):
(Play harmonics till end)

e:-----------------------------------------------------------------|
B:-----------------------------------------------------------------|
G:-------------5*--------------------------------------------------|
D:-------5*-------5*----5*-----------------------------------------|
A:----5*----5*-------5*--------------------------------------------|
D:-5*--------------------------------------------------------------|

Related for Spitty Angels Fire - Hey You Hello tab
Advertisement will be closed in 10 seconds