Song name
# A B C D E F G H I J K L M N O P Q R S T U V W X Y Z

Misc Unsigned Bands - Crucial Injustice - Back Of The Hearse tab

----------------------------------------------------------------------------
                    Back of the hearse - Crucial injustice
----------------------------------------------------------------------------
Tabber: Christian
E-Mail: none

Tuning: Drop D (Db,Ab,Db,Gb,Bb,eb)

Intro 1:
            x3              x1
e|------------------------|---|
B|------------------------|---|
G|------------------------|---|
D|-7-7h875-5h753-3h532-2h3|20-|
A|------------------------|---|
D|------------------------|---|

Intro 2:

e|----------------------------------------------------------------|
B|----------------------------------------------------------------|
G|----------------------------------------------------------------|
D|7-7-7-7-7-7-7-7-6-6-6-6-6-6-6-6-4-4-4-4-4-4-4-4-6-6-6-6-9-9-9-9-|
A|7-7-7-7-7-7-7-7-6-6-6-6-6-6-6-6-4-4-4-4-4-4-4-4-6-6-6-6-9-9-9-9-|
D|7-7-7-7-7-7-7-7-6-6-6-6-6-6-6-6-4-4-4-4-4-4-4-4-6-6-6-6-9-9-9-9-|

Verses: play intro 1
Choruses: play intro 2

Drum solo/ Bridge:
      x?
e|------------|
B|------------|
G|------------|
D|9--9--9--9--|
A|9--9--9--9--|
D|9--9--9--9--|

Outro: Intro 2 x3
-Gtr 2: intro 1 x2 (after gtr 1 plays intro 2 once)

Structure:
Intro 1
Intro 2
Verse 1
Chorus 1
Verse 2
Chorus 2
Drum solo
outro
Tap to rate this tab
 
# A B C D E F G H I J K L M N O P Q R S T U V W X Y Z