Song name
# A B C D E F G H I J K L M N O P Q R S T U V W X Y Z

Misc Unsigned Bands - The Seven Deadly Sins - Im Gon Cry You A River Then Drown You In It tab

The Seven deadly sins

drop c

“Im gona cry you a river then drown you in it”

intro guitar 1 clean
|----5-----5-----6-----6-----6-----6-----5-----5---|
|---6-6---6-6---5-5---5-5---5-5---5-5---6-6---6-6--|
|--7---7-7---7-7---7-7---7-6---6-6---6-7---7-7---7-|
|-0-----0-----0-----0-----0-----0-----0-----0------|
|--------------------------------------------------|
|--------------------------------------------------|
guitar 2
|--------------------------------------------------|---|
|--------------------------------------------------|---|
|--------------------------------------------------|---|
|-0-----------3-----------35----------3---2---1----|-0-|
|-0-----------3-----------35----------3---2---1----|-0-|
|-0-----------3-----------35----------3---2---1----|-0-|

guitar 1 pre verse
|--------------------------------------------------------------------|
|--------------------------------------------------------------------|
|--------------------------------------------------------------------|
|--------------------------------------------------------------------|
|------------0h5h7-0h7h8-----------0h5h7-0h3h5-----------0h5h7-0h7h8-|
|-0h5h8-0h5h7-----------0h5h8-0h5h7-----------0h5h8-0h5h7------------|
guitar 2 pre verse
|--------------------------------------------------------------------|
|--------------------------------------------------------------------|
|--------------------------------------------------------------------|
|-0---------------------3---------------------0----------------------|
|-0---------------------3---------------------0----------------------|
|-0---------------------3---------------------0----------------------|
Guitar 1 pre verse continued
|-----ending-1------------|
|-------------------------|
|-------------------------|
|-0h7h8-0h5h7-0h3h5-0h2h3-|
|-------------------------|
|-------------------------|
guitar 2 pre verse
|-----ending 1------------|
|-------------------------|
|-------------------------|
|-3-----------------------|
|-3-----------------------|
|-3-----------------------|
Guitar 1 pre verse continued
|------------ending 2------------------------------------|
|--------------------------------------------------------|
|--------------------------------------------------------|
|-0h7h8-0h5h7-0h3h5-0h2h3-0h7h8-0h18h10-0h101h12-0h12h14—|
|--------------------------------------------------------|
|--------------------------------------------------------|
guitar 2 pre verse
|-----------------ending 2------------------------------|
|-------------------------------------------------------|
|-------------------------------------------------------|
|-3---------------------5-------------------------------|
|-3---------------------5-------------------------------|
|-3---------------------5-------------------------------|

verse guitar 1
|-----------------------------------------------------------------|
|-----------------------------------------------------------------|
|-----------------------------------------------------------------|
|-----------------------------------------------------------------|
|---------------5h7-7h8--------------5h7-3h5--------------5h7-7h8-|
|-00-8p5-0-7p5-0-------00-8p5-0-7p5-0-------00-8p5-0-7p5-0--------|
  xx     x     x       xx     x     x       xx     x     x
verse guitar 2
|-----------------------------------------------------------------|
|-----------------------------------------------------------------|
|-----------------------------------------------------------------|
|-0--------------------3--------------------0---------------------|
|-0--------------------3--------------------0---------------------|
|-0--------------------3--------------------0---------------------|

verse guiatr 1 continued
|--end 1-----------|------end-2--------------|
|------------------|-------------------------|
|------------------|----------------------7~-|
|------------------| ---------------------x~-|
|-8888888877776666-|-88888888101010107777/5~-|
|------------------|-------------------------|
verse guitar 2 continued
|------------------|-------------------------|
|------------------|-------------------------|
|------------------|-------------------------|
|-3-------2---1----|-3-------5-------2----0~-|
|-3-------2---1----|-3-------5-------2----0~-|
|-3-------2---1----|-3-------5-------2----0~-|

verse pt 2 guitar 1
|----------------------------------------------------|
|----------------------------------------------------|
|-7--7--7-7/9-7--7--7-10/9-7--7--7-7/9-7--7—-12/10/9-|
|-x--x--x-x/x-x--x--x-x-/x-x--x--x-x/x-x--x--x-/x-/x-|
|-5--5--5-5/7-5--5--5-8-/7-5--5--5-5/7-5--5—-10/8-/7-|
|--00-00-0-----00-00-0------00-00-0-----00-00--------|
   xx xx x     xx xx x      xx xx x     xx xx
verse pt 2 guitar 2
|-------------------------------------------------|
|-------------------------------------------------|
|-------------------------------------------------|
|-0--0--0—0/2-0--0--0-3/2-0--0--0-0/2-0--0—-5/3/2-|
|-0--0--0—0/2-0--0--0-3/2-0--0--0-0/2-0--0—-5/3/2-|
|-000000000/2-000000003/2-000000000/2-0000005/3/2-|
   xx xx x     xx xx x     xx xx x     xx xx
guitar 1 chorus
|--------------------------------------------------|
|--------------------------------------------------|
|-101010101010/12/14/12121212/14/15/777777/999/555-|
|-x-x-x-x-x-x-/x-/x-/x-x-x-x-/x-/x-/xxxxxx/xxx/xxx-|x3
|-8-8-8-8-8-8-/10/12/10101010/12/13/555555/777/333-|
|--------------------------------------------------|
guitar 2 chorus
|--------------------------------------------------|
|--------------------------------------------------|
|--------------------------------------------------|
|-3---------333-5----------555-0------000-0----000-|x3
|-3---------333-5----------555-0------000-0----000-|
|-3---------333-5----------555-0------000-0----000-|
            xxx            xxx        xxx      xxx
guitar 1 chorus fourth time
|--------------------------------------|
|--------------------------------------|
|-101010101010/12/14/12121212/14/15/7~-|
|-x-x-x-x-x-x-/x-/x-/x-x-x-x-/x-/x-/x~-|
|-8-8-8-8-8-8-/10/12/10101010/12/13/5~-|
|--------------------------------------|
guitar 2 chorus fourth time
|--------------------------------------|
|--------------------------------------|
|--------------------------------------|
|-3---------333-5----------555------0~-|
|-3---------333-5----------555------0~-|
|-3---------333-5----------555------0~-|
            xxx            xxx
bridge both guitars
|---------------------------------|
|---------------------------------|
|---------------------------------|
|-0-0-0-0-0-0-0-0-3-3-3-3-2-2-1-1-|x6
|-0-0-0-0-0-0-0-0-3-3-3-3-2-2-1-1-|
|-0-0-0-0-0-0-0-0-3-3-3-3-2-2-1-1-|
  x x x x x x x x x x x x x x x x
guitar 1 seperates and plays
|-----------------------------------------------|
|----------------------------22p20p19p----------|
|-19-20-19-20-22~-19-20-19-20---------22p20p19p-|
|---------------- ------------------------------|x4
|-----------------------------------------------|
|-----------------------------------------------|

breakdown thing both guitars
|----------x4----------------------|end-|
|----------------------------------|----|
|----------------------------------|----|
|----------------------------------|-0~-|
|----------------------------------|-0~-|
|-00000-00000-000--00000-00000-321-|-0~-|
  xxxxx xxxxx xxx  xxxxx xxxxx xxx

outro solo guitar 1
|-------------------------181715------------151718-|
|-/18~~~~~~~~~15~~~~~~~~~~------181715151718-------|
|--------------------------------------------------|
|--------------------------------------------------|
|--------------------------------------------------|
|--------------------------------------------------|
guitar 2 solo
|--------------------------------------------------|
|--------------------------------------------------|
|--------------------------------------------------|
|-3---------333-5----------555-0------000-0----000-|
|-3---------333-5----------555-0------000-0----000-|
|-3---------333-5----------555-0------000-0----000-|
            xxx            xxx        xxx      xxx
continued
|---------------------------------------------------|
|-18~~~~~~~~~~~13~~~~~~~~~~~~11~~~~~~~~/10h11p10/11-|
|---------------------------------------------------|
|---------------------------------------------------|
|---------------------------------------------------|
|---------------------------------------------------|
guitar 2 chorus
|--------------------------------------------------|
|--------------------------------------------------|
|--------------------------------------------------|
|-3---------333-5----------555-0------000-0----000-|
|-3---------333-5----------555-0------000-0----000-|
|-3---------333-5----------555-0------000-0----000-|
            xxx            xxx        xxx      xxx
guitar 1 solo continued
|-t15h13p11(x4)-t17h13p11(x4)-t18h13p11(x4)-t20h13p11(x2)-t18h13p11(x2)-|
|-----------------------------------------------------------------------|
|-----------------------------------------------------------------------|
|-----------------------------------------------------------------------|
|-----------------------------------------------------------------------|
|-----------------------------------------------------------------------|
guitar 2 solo
|--------------------------------------------------|
|--------------------------------------------------|
|--------------------------------------------------|
|-3---------333-5----------555-0------000-0----000-|
|-3---------333-5----------555-0------000-0----000-|
|-3---------333-5----------555-0------000-0----000-|
            xxx            xxx        xxx      xxx
guitar 1 solo continued
|-t15h13p11(x4)-t17h13p11(x4)-t18h13p11(x4)-t17h13p11(x2)-t15h13p11(x2)-|
|-----------------------------------------------------------------------|
|-----------------------------------------------------------------------|
|-----------------------------------------------------------------------|
|-----------------------------------------------------------------------|
|-----------------------------------------------------------------------|
guitar 2 solo
|--------------------------------------------------|
|--------------------------------------------------|
|--------------------------------------------------|
|-3---------333-5----------555-0------000-0----000-|
|-3---------333-5----------555-0------000-0----000-|
|-3---------333-5----------555-0------000-0----000-|
            xxx            xxx        xxx      xxx
guitar 1 solo continued
|-t15h13p11(x4)-t17h13p11(x4)-t18h13p11(x4)-t20h13p11(x2)-t18h13p11(x2)-|
|-----------------------------------------------------------------------|
|-----------------------------------------------------------------------|
|-----------------------------------------------------------------------|
|-----------------------------------------------------------------------|
|-----------------------------------------------------------------------|
guitar 2 solo
|--------------------------------------------------|
|--------------------------------------------------|
|--------------------------------------------------|
|-3---------333-5----------555-0------000-0----000-|
|-3---------333-5----------555-0------000-0----000-|
|-3---------333-5----------555-0------000-0----000-|
            xxx            xxx        xxx      xxx
guitar 1 solo continued
|-t15h13p11(x4)-t17h13p11(x4)/20fb-|
|----------------------------------|
|----------------------------------|
|----------------------------------|
|----------------------------------|
|----------------------------------|
guitar 2 solo
|----------------------------------|
|----------------------------------|
|----------------------------------|
|-3---------333-5----------555-0~--|
|-3---------333-5----------555-0~--|
|-3---------333-5----------555-0~--|
            xxx            xxx

intro clean just nick x5
guitar 2 intro x1
pre verse x2
verse x2
pre chorus x2
chorus x3
chorus fourth time x1
bridge both guitars x6
breakdown x 4
pre verse x2
verse x2
pre chorus x2
chorus x4
solo

visit our myspace
Tap to rate this tab
 
# A B C D E F G H I J K L M N O P Q R S T U V W X Y Z