Song name
# A B C D E F G H I J K L M N O P Q R S T U V W X Y Z

Misc Unsigned Bands - For The Lose - Orange Vodka Chocolate Milkshake tab

Tuning: drop d flat

intro pt 1
gtr 1                              1st & 3rd   |2nd & 4th ending
e|----------|----------|----------|------------|------8------|
B|---5---5--|---5---5--|---5---5--|----8----8--|----8--8-----|
G|--5-5-5-5-|--7-7-7-7-|--5-5-5-5-|---9-9--9-9-|---9-9--9----| x4
D|-3---3----|-5---5----|-7---7----|-10---10----|-10------10--|
A|----------|----------|----------|------------|-------------|
E|----------|----------|----------|------------|-------------|
rhythm: straight 8ths

e|----|
B|-5--|
G|-5--| (end; let ring)
D|-3--|
A|----|
E|----|

gtr 2
e|------------|------------|------------|------------|
B|------------|------------|------------|------------|
G|---5-4-5-4--|---5-4-5-4--|---5-4-5-4--|---5-4-5-4--|(come in 3rd time)
D|--5-5-----5-|--5-5-----5-|--5-5-----5-|--5-5-----5-|(x2)
A|------------|------------|-0----------|-3----------|
E|-3----------|-5----------|------------|------------|
rhythm: straight 8ths

e|----|
B|----|
G|-5--| (end; let ring)
D|-5--|
A|-x--|
E|-3--|

intro pt 2
gtr 1
e|----------|-----------|------------------|--------------|
B|----------|-----------|------------------|--------------|
G|-9---10---|-12------7-|-9---17-16-12---7-|-9---17-16-12-| x2
D|-x----x---|--x------5-|-7----x--x--x---5-|-7----x--x--x-|
A|-8----8---|-10------5-|-7---15-14-10---5-|-7---15-14-10-|
E|----------|-----------|------------------|--------------|
(1&2)(&3&4&) (1234e&)(a)(1e&)(2)(3)(4e&)(a) (1e&)(2)(3)(4) 

e|----|---|
B|----|---|
G|-10-|-9-|
D|--x-|-x-|
A|--8-|-5-|
E|----|---|
(straight 16ths)

gtr 2
e|---|---|--------------------|--------------------|
B|---|---|--------------------|--------------------|
G|-5-|-7-|--------------------|--------------------|
D|-3-|-5-|-7-7--------------5-|-7-7--------------7-| x2
A|-3-|-5-|-7-7-77777777777775-|-7-7-77777777777777-|
E|-3-|-5-|-7-7-77777777777775-|-7-7-77777777777777-|
             pm.............      pm.............
e|---|---|
B|---|---|
G|-5-|-7-|
D|-3-|-5-|
A|-3-|-5-|
E|-3-|-5-|

verse 1 pt 1
gtr 1
e|----0-|----0-|------|------|
B|----0-|----0-|------|------|
G|----5-|----5-|----5-|----5-|
D|----5-|----5-|----5-|----5-| x2
A|-00-0-|-00-0-|----x-|----x-|
E|------|------|-33-3-|-55-5-|
 pm..     ..     ..     ..

verse 1 pt 2
gtr 1
e|---|---|---|---|
B|---|---|---|---|
G|---|---|---|---|
D|-7-|-7-|-3-|-5-| x2
A|-7-|-7-|-3-|-5-|
E|-7-|-7-|-3-|-5-|
(straight 16ths, pm)

[i dont have a guitar 2 part for the 2nd part of the first verse yet]

chorus
gtr 1
e|----|-------|----|----------|
B|----|-------|----|----------|
G|-14-|-16-17-|-10-|-7-77--77-|
D|--x-|--x--x-|--x-|-7-55--55-| x2
A|-12-|-14-15-|--8-|-5-55--55-|
E|----|-------|----|----------|
                      (3&)(e&) 

gtr 2
e|---|---|---|----------|
B|---|---|---|----------|
G|---|---|---|----------|
D|-7-|-7-|-3-|-0-55--55-| x2
A|-7-|-7-|-3-|-0-55--55-|
E|-7-|-7-|-3-|-0-55--55-|
Tap to rate this tab
# A B C D E F G H I J K L M N O P Q R S T U V W X Y Z