Guitaretab - guitar tabs
Song name
# A B C D E F G H I J K L M N O P Q R S T U V W X Y Z

Misc Unsigned Bands - The Necessary Casualty - Paranoid tab

------------------------------------------------------------------------
		Paranoid (cover) - The Necessary Casualty
------------------------------------------------------------------------

Tabbed by: Daniel V
Email: TheNecessaryCasualty@gmail.com / Gtrvieth@gmail.com
Website:  http://profile.myspace.com/index.cfm?fuseaction=user.viewprofile&friendid=368789725

Tuning: Standard


*Well this is my bands cover of Black Sabbath’s Paranoid. The only real 
 deference between this and the original is that the guitar part to this
 is an octave lower and more distorted, thus giving it a harder sound

 (And the solo is slightly easier)

 Enjoy!


Intro

E|-----------------------------------------------------|
B|-----------------------------------------------------|
G|-----------------------------------------------------|
D|--0h2-0h2-0h2----0h2---0h2-0h2-0h2-0h2----0h2---0----|
A|--0h2-0h2-0h2-0h2---0h2----0h2-0h2-0h2-0h2---0h2--0--|
E|--0---0---0----------------0---0---0-----------------|

E|-----------------------------------------------------|
B|-----------------------------------------------------|
G|-----------------------------------------------------|
D|--0h2-0h2-0h2----0h2---0h2-0h2-0h2-0h2----0h2---0----|
A|--0h2-0h2-0h2-0h2---0h2----0h2-0h2-0h2-0h2---0h2--0--|
E|--0---0---0----------------0---0---0-----------------|

Verse 1 “Finished with my woman…”

E|----------------------------------------------------------|
B|----------------------------------------------------------|
G|----------------------------------------------------------|
D|--2-2-2-2-2-2-2-2-2-2-2-2-2-2-2-2-0-0-0-0-0-0-0-0-5h0--2--|
A|--2-2-2-2-2-2-2-2-2-2-2-2-2-2-2-2-0-0-0-0-0-0-0-0-5h0--2--|
E|----------------------------------------------------------|

E|----------------------------------------------------------|
B|----------------------------------------------------------|
G|----------------------------------------------------------|
D|--2-2-2-2-2-2-2-2-2-2-2-2-2-2-2-2-0-0-0-0-0-0-0-0-5h0--2--|
A|--2-2-2-2-2-2-2-2-2-2-2-2-2-2-2-2-0-0-0-0-0-0-0-0-5h0--2--|
E|----------------------------------------------------------|

E|-------------------------------------------------|
B|-------------------------------------------------|
G|--------5---7------------------------------------|
D|--2-----5---7---2-2-2-2-2-2-2-2-2-2-2-2-2-2-2-2--|
A|--2-----3---5---2-2-2-2-2-2-2-2-2-2-2-2-2-2-2-2--|
E|-------------------------------------------------|
E|-------------------------------------------------|
B|-------------------------------------------------|
G|--------5---7------------------------------------|
D|--2-----5---7---2-2-2-2-2-2-2-2-2-2-2-2-2-2-2-2--|
A|--2-----3---5---2-2-2-2-2-2-2-2-2-2-2-2-2-2-2-2--|
E|-------------------------------------------------|

Verse 2 “All day long I think of things…”

E|----------------------------------------------------------|
B|----------------------------------------------------------|
G|----------------------------------------------------------|
D|--2-2-2-2-2-2-2-2-2-2-2-2-2-2-2-2-0-0-0-0-0-0-0-0-5h0--2--|
A|--2-2-2-2-2-2-2-2-2-2-2-2-2-2-2-2-0-0-0-0-0-0-0-0-5h0--2--|
E|----------------------------------------------------------|

E|----------------------------------------------------------|
B|----------------------------------------------------------|
G|----------------------------------------------------------|
D|--2-2-2-2-2-2-2-2-2-2-2-2-2-2-2-2-0-0-0-0-0-0-0-0-5h0--2--|
A|--2-2-2-2-2-2-2-2-2-2-2-2-2-2-2-2-0-0-0-0-0-0-0-0-5h0--2--|
E|----------------------------------------------------------|

Bridge “Can you help me…?”

E|--------------------------------------------|
B|--------------------------------------------|
G|--------------------------------------------|
D|--2----0----2----0--|
A|--2----0----2----0--|
E|--------------------------------------------|

E|----------------------------------------------------------|
B|----------------------------------------------------------|
G|----------------------------------------------------------|
D|--2-2-2-2-2-2-2-2-2-2-2-2-2-2-2-2-0-0-0-0-0-0-0-0-5h0--2--|
A|--2-2-2-2-2-2-2-2-2-2-2-2-2-2-2-2-0-0-0-0-0-0-0-0-5h0--2--|
E|----------------------------------------------------------|

E|----------------------------------------------------------|
B|----------------------------------------------------------|
G|----------------------------------------------------------|
D|--2-2-2-2-2-2-2-2-2-2-2-2-2-2-2-2-0-0-0-0-0-0-0-0-5h0--2--|
A|--2-2-2-2-2-2-2-2-2-2-2-2-2-2-2-2-0-0-0-0-0-0-0-0-5h0--2--|
E|----------------------------------------------------------|

Verse 3 “I need someone to tell me…”

E|----------------------------------------------------------|
B|----------------------------------------------------------|
G|----------------------------------------------------------|
D|--2-2-2-2-2-2-2-2-2-2-2-2-2-2-2-2-0-0-0-0-0-0-0-0-5h0--2--|
A|--2-2-2-2-2-2-2-2-2-2-2-2-2-2-2-2-0-0-0-0-0-0-0-0-5h0--2--|
E|----------------------------------------------------------|

E|----------------------------------------------------------|
B|----------------------------------------------------------|
G|----------------------------------------------------------|
D|--2-2-2-2-2-2-2-2-2-2-2-2-2-2-2-2-0-0-0-0-0-0-0-0-5h0--2--|
A|--2-2-2-2-2-2-2-2-2-2-2-2-2-2-2-2-0-0-0-0-0-0-0-0-5h0--2--|
E|----------------------------------------------------------|

Solo
[ Tab from: http://www.guitaretab.com/m/misc-unsigned-bands/113533.html ]
E|----------------------------------------------------------------------|
B|----------------------------------------------------------------------|
G|-12-14p12-14b---14b---14-14---12-14-12----12--------------------------|
D|----------------------------------------14--14-12--12-----------------|
A|-------------------------------------------------14--14-12--12-10-----|
E|-------------------------------------------------------------------12-|

E|---------------------------------------|
B|---------------------------------------|
G|-------------12--12h14-12h14-12b--12b--|
D|-12h14-12h14---14----------------------|
A|---------------------------------------|
E|---------------------------------------|

E|-------------------------------------|
B|-------------------------------------|
G|--12-14p12---------------------------|
D|----------14p12-14p12--12------------|
A|---------------------14--12\10-------|
E|------------------------------12-12--|

E|-----------12---12-------12-17--17--17-17p15p12--|
B|--12-15-12------------15-------------------------|
G|-------------------------------------------------|
D|-------------------------------------------------|
A|-------------------------------------------------|
E|-------------------------------------------------|

E|--17p15p12--------------------------------|
B|----------17p15p12--15-12----12-----------|
G|--------------------------14----14--------|
D|-----------------------------------14-14--|
A|------------------------------------------|
E|------------------------------------------|

E|------------------------------------------|
B|------------------------------------------|
G|-----------14-14-12-----------------------|
D|--14-12-14----------14-12-----------------|
A|--------------------------14-12-14-12-12--|
E|------------------------------------------|

E|-------------------------------------------|
B|-------------------------------------------|
G|-------------------------------12----------|
D|----------------------------------12---14--|
A|--10-10-10-12-10-12-13-12-10---------------|
E|-------------------------------------------|

E|----------------------------------------------------------|
B|----------------------------------------------------------|
G|----------------------------------------------------------|
D|--2-2-2-2-2-2-2-2-2-2-2-2-2-2-2-2-0-0-0-0-0-0-0-0-5h0--2--|
A|--2-2-2-2-2-2-2-2-2-2-2-2-2-2-2-2-0-0-0-0-0-0-0-0-5h0--2--|
E|----------------------------------------------------------|

E|----------------------------------------------------------|
B|----------------------------------------------------------|
G|----------------------------------------------------------|
D|--2-2-2-2-2-2-2-2-2-2-2-2-2-2-2-2-0-0-0-0-0-0-0-0-5h0--2--|
A|--2-2-2-2-2-2-2-2-2-2-2-2-2-2-2-2-0-0-0-0-0-0-0-0-5h0--2--|
E|----------------------------------------------------------|

Verse 4 “Make a joke and I will cry…”

E|----------------------------------------------------------|
B|----------------------------------------------------------|
G|----------------------------------------------------------|
D|--2-2-2-2-2-2-2-2-2-2-2-2-2-2-2-2-0-0-0-0-0-0-0-0-5h0--2--|
A|--2-2-2-2-2-2-2-2-2-2-2-2-2-2-2-2-0-0-0-0-0-0-0-0-5h0--2--|
E|----------------------------------------------------------|

E|----------------------------------------------------------|
B|----------------------------------------------------------|
G|----------------------------------------------------------|
D|--2-2-2-2-2-2-2-2-2-2-2-2-2-2-2-2-0-0-0-0-0-0-0-0-5h0--2--|
A|--2-2-2-2-2-2-2-2-2-2-2-2-2-2-2-2-0-0-0-0-0-0-0-0-5h0--2--|
E|----------------------------------------------------------|

E|-------------------------------------------------|
B|-------------------------------------------------|
G|--------5---7------------------------------------|
D|--2-----5---7---2-2-2-2-2-2-2-2-2-2-2-2-2-2-2-2--|
A|--2-----3---5---2-2-2-2-2-2-2-2-2-2-2-2-2-2-2-2--|
E|-------------------------------------------------|

E|-------------------------------------------------|
B|-------------------------------------------------|
G|--------5---7------------------------------------|
D|--2-----5---7---2-2-2-2-2-2-2-2-2-2-2-2-2-2-2-2--|
A|--2-----3---5---2-2-2-2-2-2-2-2-2-2-2-2-2-2-2-2--|
E|-------------------------------------------------|

Verse 5 “And so as you hear these words…”

E|----------------------------------------------------------|
B|----------------------------------------------------------|
G|----------------------------------------------------------|
D|--2-2-2-2-2-2-2-2-2-2-2-2-2-2-2-2-0-0-0-0-0-0-0-0-5h0--2--|
A|--2-2-2-2-2-2-2-2-2-2-2-2-2-2-2-2-0-0-0-0-0-0-0-0-5h0--2--|
E|----------------------------------------------------------|

E|----------------------------------------------------------|
B|----------------------------------------------------------|
G|----------------------------------------------------------|
D|--2-2-2-2-2-2-2-2-2-2-2-2-2-2-2-2-0-0-0-0-0-0-0-0-5h0--2--|
A|--2-2-2-2-2-2-2-2-2-2-2-2-2-2-2-2-0-0-0-0-0-0-0-0-5h0--2--|
E|----------------------------------------------------------|

E|----------------------------------------------------------|
B|----------------------------------------------------------|
G|----------------------------------------------------------|
D|--2-2-2-2-2-2-2-2-2-2-2-2-2-2-2-2-0-0-0-0-0-0-0-0-5h0--2--|
A|--2-2-2-2-2-2-2-2-2-2-2-2-2-2-2-2-0-0-0-0-0-0-0-0-5h0--2--|
E|----------------------------------------------------------|

E|----------------------------------------------------------|
B|----------------------------------------------------------|
G|----------------------------------------------------------|
D|--2-2-2-2-2-2-2-2-2-2-2-2-2-2-2-2-0-0-0-0-0-0-0-0-5h0--2--|
A|--2-2-2-2-2-2-2-2-2-2-2-2-2-2-2-2-0-0-0-0-0-0-0-0-5h0--2--|
E|----------------------------------------------------------|




Related for The Necessary Casualty - Paranoid tab