Guitaretab - guitar tabs
Song name
# A B C D E F G H I J K L M N O P Q R S T U V W X Y Z

Misc Unsigned Bands - The Seven Deadly Sins - Missing You tab

The seven deadly sins

“Missing you”

acoustic
[ Tab from: http://www.guitaretab.com/m/misc-unsigned-bands/113547.html ]
Guitar 1 Verse/intro
|---------------------------------------------|
|-8----8----12-----12-----7----7----5----5----|
|----0--0-0-----0----0--0----0--0-0----0--0-0-|
|---9-9--9----12-12---12----7-7--7----5-5--5--|
|-7---------10------------5---------3---------|
|---------------------------------------------|
guitar 2 verse
|------------------------------------------|
|------------------------------------------|
|------------------------------------------|
|-9999999912121212121212127777777755555555-| 
|-7777777710101010101010105555555533333333-|
|------------------------------------------|
pm----------------------------------------
guitar 1 chorus
|--------------------1-1-1-11-1-1-1-11-2-2-2-22-2-2-2-22------------------|
|--0-0-0-00-0-0-0-00-0-0-0-00-0-0-0-00-3-3-3-33-3-3-3-33-1-1-1-11-3-3-3-33|
|--0-0-0-00-0-0-0-00-0-0-0-00-0-0-0-00-2-2-2-22-2-2-2-22-0-0-0-00-0-0-0-00|
|-22-2-2-22-2-2-2-22-0-0-0-00-0-0-0-00-0-0-0-00-0-0-0-00-2-2-2-22-2-2-2-22| 
|2-2-2-2-22-2-2-2-22-2-2-2-22-2-2-2-22-------------------3-3-3-33-3-3-3-33|
|--------------------3-3-3-33-3-3-3-33------------------------------------|
guitar 2 chorus/pre verse
|-------------------------------------------------------------------|
|-------------------------------------------------------------------|
|-------------------------------------------------------------------|
|-------------------------------------------------------------------| 
|-7~~~~~~~~~~~~10~~~~~~~~~~~~-----------5~~~~~~~~~~~~~3~~~~~~~~~~~~~|
|-------------------------------------------------------------------|
Guitar 1 pre verse
|-------------------------------------------------------------------|
|-888-88-888-88-121212-1212-121212-1212-777-77-777-77-555-55-555-55-|
|-000-00-000-00-0-0-0--0-0--0-0-0--0-0--000-00-000-00-000-00-000-00-|
|-999-99-999-99-121212-1212-121212-1212-777-77-777-77-555-55-555-55-| 
|-777-77-777-77-101010-1010-101010-1010-555-55-555-55-333-33-333-33-|
|-------------------------------------------------------------------|
guiatr 1 solo
|-------------------------------------------------------------------------|
|-1/5~~~~~~~~--------5/8~~10-8-7-8-7-5-7-5-3-1-0~~~~~~~~~~~~~~~~~~~~~~~~~/|
|-------------------------------------------------------------------------|
|-------------------------------------------------------------------------| 
|-------------------------------------------------------------------------|
|-------------------------------------------------------------------------|
guitar 2 solo
guitar 1 chorus
|--------------------1-1-1-11-1-1-1-11-2-2-2-22-2-2-2-22------------------|
|--0-0-0-00-0-0-0-00-0-0-0-00-0-0-0-00-3-3-3-33-3-3-3-33-1-1-1-11-3-3-3-33|
|--0-0-0-00-0-0-0-00-0-0-0-00-0-0-0-00-2-2-2-22-2-2-2-22-0-0-0-00-0-0-0-00|
|-22-2-2-22-2-2-2-22-0-0-0-00-0-0-0-00-0-0-0-00-0-0-0-00-2-2-2-22-2-2-2-22| 
|2-2-2-2-22-2-2-2-22-2-2-2-22-2-2-2-22-------------------3-3-3-33-3-3-3-33|
|--------------------3-3-3-33-3-3-3-33------------------------------------|

guitar 1 solo continued
|------15-14-12-14-12-10-12-10-9-10-9--7---------------------------------|
|-1/5~/----------------------------------10-9-7-8-7-5-7-5-3-5-3-1-3-1-0--|
|------------------------------------------------------------------------|
|------------------------------------------------------------------------| 
|------------------------------------------------------------------------|
|---------------------------------------------------------------------0/-|
guitar 1 chorus
|--------------------1-1-1-11-1-1-1-11-2-2-2-22-2-2-2-22------------------|
|--0-0-0-00-0-0-0-00-0-0-0-00-0-0-0-00-3-3-3-33-3-3-3-33-1-1-1-11-3-3-3-33|
|--0-0-0-00-0-0-0-00-0-0-0-00-0-0-0-00-2-2-2-22-2-2-2-22-0-0-0-00-0-0-0-00|
|-22-2-2-22-2-2-2-22-0-0-0-00-0-0-0-00-0-0-0-00-0-0-0-00-2-2-2-22-2-2-2-22| 
|2-2-2-2-22-2-2-2-22-2-2-2-22-2-2-2-22-------------------3-3-3-33-3-3-3-33|
|--------------------3-3-3-33-3-3-3-33------------------------------------|

repeat chorus 

repeat pre verse


“Missing You”

I know your all alone tonight
Pretending that your alright
I know I’ve crossed your mind
As time begin to unwind
I know well make it through
Even if I cant be with you
Inside it feels like I died
Knowing  you have cried

Lets not pretend
That your alright when your not
Cause we both know 
That missing you feels like the end

You and I will fly away
To a happier day
Were gonna try to get through
This pain of missing you
I only want you to be happy
Even if its not with me
Just know Ill always care
Even if I cant be there

Lets not pretend
That your alright when your not
Cause we both know 
That missing you feels like the end

check this song out on our myspace!
Related for The Seven Deadly Sins - Missing You tab
Advertisement will be closed in 10 seconds