Song name
# A B C D E F G H I J K L M N O P Q R S T U V W X Y Z

Misc Unsigned Bands - Ataque 77 - Amigo tab

QUINTAS    SIMPLES
Sim: x244xx    224432
Sol: 355xxx    320033
La:  577xxx    002220
Re:  x577xx    000323
Mim: 022xxx    022000
F#:  244xxx    244322


Intro:
  Bm		      G                     A                    Bm
-------------------|--------------------|-------------------------------|
-------------------|--------------------|-------------------------------|
---6-4---6-4---6-4-|----7-6---7-6---7-6-|---7-6---7-6---7-6---7---4-2-4v|
-4-----4-----4-----|4/5-----5-----5-----|-7-----7-----7-----7-----------|
-------------------|--------------------|-------------------------------|
-------------------|--------------------|-------------------------------|X2


      Sim                                   Sol
Tu eres mi hermano del alma realmente el amigo
        La                                     Re
que en todo camino y por nada está siempre conmigo    RIFF1
        Sol                                     Mim
Aunque eres un hombre aun tienes el alma de un niño   RIFF2
   Fa#                                      Sim
aquel que me da su amistad, su respeto y cariño       RIFF3


   Sim                                     Sol
Recuerdo que juntos pasamos muy duros momentos
        La                                     Re
y tú no cambiaste por fuertes que fueron los vientos  RIFF4
    Sol                              Mim
Es tu corazón una casa de puertas abiertas            RIFF2
   Fa#                                     Sim
Tu eres realmente el más cierto en horas inciertas


INTRO (x1)

   Sim                                       Sol
En ciertos momentos difíciles que hay en la vida
   La                                       Re
buscamos a quien nos ayude a encontrar la salida      RIFF1
    Sol                                        Mim
y aquella palabra de fuerza y de fe que me has dado   RIFF2
   Fa#                                      Sim
me da la certeza que siempre estuviste a mi lado .     RIFF3


   Sim                                 Sol
Tu eres mi amigo del alma en toda jornada
   La                               Re
sonrisa y abrazo, testigo a cada llegada              RIFF5
    Sol                                     Mim
me dices verdades tan grandes con frases abiertas     RIFF2
   Fa#                                        Sim
Tu eres realmente el más cierto en horas inciertas


INTRO (x1)

      Sim                 G
No preciso ni decir todo esto que te digo
          La                      Sim                x 3
Pero es bueno así sentir que eres tu mi gran amigo.


si/mi/fa#/si TOCA ESTO MIENTRAS HACE ESE SOLO CHOTO Y EL CANTANTE HABLA EN GRIEGO
                              Y TERMINA





                                 [SOLO]




***********************************************************************************************




  RIFF1               RIFF2               RIFF3       RIFF4               RIFF5
e|-----------------| |-----------------| |---------| |-----------------| |----------------------|
B|---------2-------| |---------1s3-----| |---------| |-----------------| |----------------------|
G|----2--------2---| |-----------------| |-----1s7-| |-2-2-1-1---------| |----2--2-2-1-1--------|
D|---2---2---2---2-| |---1-5-1-----1---| |-----1s7-| |---------4-4---2-| |---2-----------4-4--2-|
A|-0---------------| |-3-------------3-| |-7s1-----| |-----------------| |-0--------------------|
E|-----------------| |-----------------| |---------| |-----------------| |----------------------|
Tap to rate this tab
 
# A B C D E F G H I J K L M N O P Q R S T U V W X Y Z