Song name
# A B C D E F G H I J K L M N O P Q R S T U V W X Y Z

Misc Unsigned Bands - Last Serenade - Decisions tab

hey this is only my second tab but i got the tab by emailing last serenade, it was 
in drop C but i adapted it so it was standard to save myself from tuning down

email me if you want the original and i'll see if i can find it: Devin_b_moore@hotmail.com

or add me at http://www.myspace.com/dmoore311

~ = bend

E|---------------------------------|--------------------------------------|
A|---------------------------------|--------------------------------------|
D|-------5-5-5-------6-6-6-5-5-5-6-|--------5-5-5-------8-8-8-7-7-5-5-5-6-|
G|-------------6-6-6---------------|--------------6-6-6-------------------|
B|-4-4-4---------------------------|--4-4-4-------------------------------|
E|---------------------------------|--------------------------------------|

E|---------------------------------|-----------------------------------|
A|---------------------------------|-----------------------------------|
D|-------5-5-5-------6-6-6-5-5-5-6-|--------5-5-5----------------------|
G|-------------6-6-6---------------|--------------6-6-6-4-4-4----------|
B|-4-4-4---------------------------|--4-4-4-------------------3-3-3-4~-|
E|---------------------------------|-----------------------------------|
Tap to rate this tab
 
# A B C D E F G H I J K L M N O P Q R S T U V W X Y Z