Song name
# A B C D E F G H I J K L M N O P Q R S T U V W X Y Z

Misc Unsigned Bands - Worthless Without - 10 Second To Live tab

Tuning: Drop D

E||-------------------------------|----------------------------|
B||--------------6----------------|--5--5--5--------------6----|
G||-------------------------------|----------------------------|
D||-------------------------------|----------------------------|
A||--0--0-0-0--0------0--0-0-0--0-|-----------0--0-0-0--0------|
D||--0--0-0-0--0------0--0-0-0--0-|-----------0--0-0-0--0------|

-------------------------------|--------------------------------|
--------------8----------------|--10-8-6--------------8-6-5-----|
-------------------------------|--------------------------------|
-------------------------------|--------------------------------|
--0--0-0-0--0------0--0-0-0--0-|----------0--0-0-0--0--------0--|
--0--0-0-0--0------0--0-0-0--0-|----------0--0-0-0--0--------0--|

-----------------------------------|---------------------------------|
-----------6-5-3-------------3-5-6-|--------------5-6-8--------------|
-----------------------------------|---------------------------------|
-----------------------------------|---------------------------------|
--0-0-0--0-------0--0-0-0--0-------|--0--0-0-0--0--------0--0-0-0--0-|
--0-0-0--0-------0--0-0-0--0-------|--0--0-0-0--0--------0--0-0-0--0-|

----------|-----||
--6-8-10--|-----||
----------|-----||
----------|-----|| It goes like that for a while
----------|-----||
----------|-----||

I'll try and tab out the whole thing but since only the intro was requested I'm 
the intro for now.
Tap to rate this tab
 
# A B C D E F G H I J K L M N O P Q R S T U V W X Y Z