Song name
# A B C D E F G H I J K L M N O P Q R S T U V W X Y Z

Misc Unsigned Bands - Dahlia Seed - Bending tab

----------------------------------------------------------------------------
			     Bending - Dahlia Seed
----------------------------------------------------------------------------
Tabbed by: Laces Out Danny
Email:666chikowolf666@gmail.com

This song is from their album "Please Excuse All The Blood".
You can find this song on their band website: http://www.dahliaseed.com/

Tuning: Drop D

I've included the strumming pattern...just look at the spacing. It's easy enough to figure out.


intro:

e|------------------------------------------------------------------------|
B|------------------------------------------------------------------------|
G|-7-7-7-9--9-9-9--5-5-5-54-4--44-44--------------------------------------|
D|-7-7-7-9--9-9-9--5-5-5-54-4--44-44--------------------------------------|
A|------------------------------------------------------------------------|
D|------------------------------------------------------------------------| 
repeat 2x


verses:

e|-------------------------------------------------------------------------|
B|-------------------------------------------------------------------------|
G|-7-7-7-9--9-9-9--5-5-5-54-4--44-44---------------------------------------|
D|-7-7-7-9--9-9-9--5-5-5-54-4--44-44---------------------------------------|
A|-5-5-5-7--7-7-7--3-3-3-32-2--22-22---------------------------------------|
D|-------------------------------------------------------------------------|
repeat as often as necessary




chorus:
e|-------------------------------------------------------------------------|
B|-------------------------------------------------------------------------|
G|-------------------------------------------------------------------------|
D|-4-4-54-4x-45-4x-44-4-4-54-4x--------------------------------------------|
A|-4-4-54-4x-45-4x-44-4-4-54-4x--------------------------------------------|
D|-4-4-54-4x-45-4x-44-4-4-54-4x--------------------------------------------|
repeat as often as necessary

after the last repeat, play this:
e|-------------------------------------------------------------------------|
B|-------------------------------------------------------------------------|
G|-------------------------------------------------------------------------|
D|-4-4-7-79--9-9-9---------------------------------------------------------|
A|-4-4-7-79--9-9-9---------------------------------------------------------|
D|-4-4-7-79--9-9-9---------------------------------------------------------|




ending:
e|-------------------------------------------------------------------------|
B|-------------------------------------------------------------------------|
G|-------------------------------------------------------------------------|
D|-4-4-54-4x------4-4-5-57\------------------------------------------------|
A|-4-4-54-4x------4-4-5-57\------------------------------------------------|
D|-4-4-54-4x------4-4-5-57\------------------------------------------------|



| /  slide up
| \  slide down
| h  hammer-on
| p  pull-off
| ~  vibrato
| +  harmonic
| x  Mute note
============================================================================
Tap to rate this tab
 
# A B C D E F G H I J K L M N O P Q R S T U V W X Y Z