Song name
# A B C D E F G H I J K L M N O P Q R S T U V W X Y Z

Misc Unsigned Bands - A Traitors Betrayal - Feed The Shadows tab

----------------------------------------------------------------------------
		   Feed The Shadows - A Traitors Betrayal
----------------------------------------------------------------------------
Tabbed by: Bradley Cameron

Tuning:

e|-------------------------------------------------|
B|-------------------------------------------------|
G|-------------------------------------------------|
D|-0------0------1~-4~-3~--0------0------1~-4~-3~--|  Play twice
A|-0-0000-0-0000-1~-4~-3~--0------0------1~-4~-3~--|
E|-0-0000-0-0000-1~-4~-3~--0-0000-0-0000-1~-4~-3~--|
     ....   ....             ....   ....
e|--------------------------------------------------|
B|--------------------------------------------------|
G|--------------------------------------------------|  play twice
D|-0------------0----------0------------0-----------|
A|-0------8-5-4-0----------0------8-5-4-0-----------|
E|-0-0000-------0-00000000-0-0000-------0-00000000--|
     ....         ........   ....         ........
e|-------------------------------------|
B|-------------------------------------|
G|-------------------------------------|
D|-------------------------------------| Play twice
A|-0~-2-3~-0~-8-7~-0~-2-3~-0000-1-4-3--|
E|-0~-2-3~-0~-8-7~-0~-2-3~-0000-1-4-3--|
                           ....
e|-----------------------------|
B|-----------------------------|
G|-----------------------------|
D|-----------------------------| Play twice
A|-3--1--0--0-0--3--1--0--0-0--|
E|-5--3--0--2-1--5--3--0--2-1--|

e|-------------------------------------------------------------------|
B|-------------------------------------------------------------------|
G|-------------------------------------------------------------------|Play
D|-------------------------------------------------------------------|twice
A|---------777777774444444444444444----------------------------------|
E|-33333333------------------------33333333777777776666666666666666--|

e|-------------------------------------|
B|-------------------------------------|
G|-------------------------------------|
D|-------------------------------------| Play twice
A|-0~-2-3~-0~-8-7~-0~-2-3~-0000-1-4-3--|
E|-0~-2-3~-0~-8-7~-0~-2-3~-0000-1-4-3--|
                           ....
e|-----------------------------------------------------|
B|-----------------------------------------------------|
G|-----------------------------------------------------|
D|-0------0------1~-4~-3~--0------0------1~-4~-3~-0~~--|  
A|-0-0000-0-0000-1~-4~-3~--0------0------1~-4~-3~-0~~--|
E|-0-0000-0-0000-1~-4~-3~--0-0000-0-0000-1~-4~-3~-0~~--|
     ....   ....             ....   ....
  (double time)
e|-------------------------------------------------------------------------|
B|-------------------------------------------------------------------------|
G|-------------------------------------------------------------------------|
D|-------------------------------------------------------------------------|
A|------------------------11-8-8-9-8-8-11-8-8-9-8-8------------------------|
E|-000-11p8p0-14p11p0-000---------------------------000-11p8p0-14p11p0-000-|
   ...                     . . . . . .  . . . . . . ...                ...
e|-----------|
B|-----------|
G|-----------|
D|-1~-4~-3~--| Play twice
A|-1~-4~-3~--|
E|-1~-4~-3~--|

| /  slide up
| \  slide down
| h  hammer-on
| p  pull-off
| ~  vibrato
| +  harmonic
| x  Mute note
============================================================================
Tap to rate this tab
# A B C D E F G H I J K L M N O P Q R S T U V W X Y Z