Song name
# A B C D E F G H I J K L M N O P Q R S T U V W X Y Z

Misc Unsigned Bands - A Traitors Betrayal - Whispering To The Walls tab

----------------------------------------------------------------------------
             Whispering To The Walls - A Traitors Betrayal
----------------------------------------------------------------------------
Tabbed by:
Email:

Tuning:

e|-----------------|-------------------------------------------------------|
B|-----------------|-------------------------------------------------------|
G|-----------------|-------------------------------------------------------|
D|-0~--8~--5~--0~--|-------------------------------------------------------|
A|-0~--8~--5~--0~--|-------------------------------------------------------|
E|-0~--8~--5~--0~--|--00-00-00-00-00-00-8p0-5p0-8p0-5p0-00-00-00-00-00-00--|
                      .. .. .. .. .. ..                 .. .. .. .. .. ..
e|----------------------|
B|----------------------|
G|----------------------|
D|----------------------| Play four times
A|----------------------|
E|-00-8888888855555555--|

e|-------------------------------------------------|
B|-------------------------------------------------|
G|-------------------------------------------------|
D|-------------------------------------8-8-85-5-5--| Play twice
A|-------------------------------------8-8-85-5-5--|
E|-00-00-00-00-11-11-11-11-33-33-33-33-8-8-85-5-5--|
  (-----------------------------------)
               let ring
e|-------------------------------------------------------------------------|
B|-------------------------------------------------------------------------|
G|-------------------------------------------------------------------------|
D|---10-8-7---5h7--7h8--10-8-7--7h8p7--5h7p5--10-8-7---5h7--7h8--10-8-7----|
A|-------------------------------------------------------------------------|
E|-00--0-0-000---00---00--0-0-00-----00-----00--0-0-000---00---00--0-0-----|

e|-----------|
B|-----------|
G|-10101212--|
D|-8-8-1010--| play twice
A|-8-8-1010--|
E|-----------|

e|----------|--------------------------------------------------------------|
B|----------|--------------------------------------------------------------|
G|----------|-101010101010101012-12-12-12-12-12-12-12-7-7-7-7-7-7-7-7-9-9-9|
D|-8~-5~-0~-|-8-8-8-8-8-8-8-8-10-10-10-10-10-10-10-10-5-5-5-5-5-5-5-5-7-7-7|
A|-8~-5~-0~-|-8-8-8-8-8-8-8-8-10-10-10-10-10-10-10-10-5-5-5-5-5-5-5-5-7-7-7|
E|-8~-5~-0~-|--------------------------------------------------------------|

e|-----------|            -------------------------------------------------|
B|-----------|            -------------------------------------------------|
G|-9-9-9-9-9-|            -------------------------------------------------|
D|-7-7-7-7-7-| Play twice -5h7-5h8-5h10-5h8-5h7-5h8-5h10-5h8-5h7-5h8-5h10--|
A|-7-7-7-7-7-|            -------------------------------------------------|
E|-----------|            -------------------------------------------------|

e|-----------------------------------------------------|
B|-----------------------------------------------------|
G|-----------------------------------------------------|
D|-5h8-5h7-5h8-5h10-5h8-5h7-5h8-5h10-5h8-5h7-5h8-5h10--|
A|-----------------------------------------------------|
E|-----------------------------------------------------|

e|------------------------------------------|
B|------------------------------------------|
G|------------------------------------------|
D|---------------------------10-8-7-8-7-8-5-| play four times
A|------------------------------------------|
E|-000-000----000----000-000----------------|
   ... ...    ...    ... ...
e|-------------------------------------------------------------------------|
B|-------------------------------------------------------------------------|
G|----------------------------------------------12-14-15----------12-14-15-|
D|----------10-12-13----------10-12-13-12-14-15----------12-14-15----------|
A|-10-12-13----------10-12-13----------------------------------------------|
E|-------------------------------------------------------------------------|

e|------------------------------------------------------------20~-20p17-12-|
B|----------14-16-17----------14-16-17-15-17-18-16-18-19-20~---------------|
G|-14-16-17----------14-16-17----------------------------------------------|
D|-------------------------------------------------------------------------|
A|-------------------------------------------------------------------------|
E|-------------------------------------------------------------------------|

e|---------13h17p13--------------13h17p13-----------------11h15p11---------|
B|-------15--------15----------15--------15-------------13--------13-------|
G|-----14------------14------14------------14---------12------------12-----|
D|---15----------------15--15----------------15-----13----------------13---|
A|-17--------------------17--------------------17-15--------------------15-|
E|-------------------------------------------------------------------------|

e|---------------------------|
B|---------------------------|
G|---------------------------|
D|-8~--5~--0~----8~--5~--0~--|
A|-8~--5~--0~----8~--5~--0~--|
E|-8~--5~--0~----8~--5~--0~--|


| /  slide up
| \  slide down
| h  hammer-on
| p  pull-off
| ~  vibrato
| +  harmonic
| x  Mute note
===============================================================================
Tap to rate this tab
# A B C D E F G H I J K L M N O P Q R S T U V W X Y Z