Guitaretab - guitar tabs
Song name
# A B C D E F G H I J K L M N O P Q R S T U V W X Y Z

Misc Unsigned Bands - Richard Sixsmith - Original 1 tab

I wrote this song for my GCSE composing coursework back in 2006, it got me an A* (suprisingly)

it's speed is allegretto during the intro and adagietto during the chords.
Finger picking is best used for the intro, the plectrum should wait for the chords.

standard tuning, or step down (step down recommended)

e --------0---0-2-----2-5--3--2--0--------3--2--3--2-----2-3p0-3p0----|
b -------0-0-3---3---3-3-3--3--3-1-1-----1-1--1--2--3---3-3---3---3---|
g ----0-0---0-----2-2-----2--2---2--2---2---2--2-----2-2-----------2--|
d ---2-2-----------0-------------2---2-2--------------0-------------0-|
a --2----------------------------0----0-------------------------------|
e -0------------------------------------------------------------------|

e --------0---0-2-----2-5--3--2--7--7--7-5--3--2h3-2-----2-3p0-3p0----|
b -------0-0-3---3---3-3-3--3-----0--0--0-0--0------3---3-3---3---3---|
g ----0-0---0-----2-2-----2--2-2---0--0----0--0------2-2-----------2--|
d ---2-2-----------0----------------------------------0-------------0-|
a --2-----------------------------------------------------------------|
e -0------------------------------------------------------------------|

then it goes straight into chords.
strum powerfully, in the same rythm as the intro...assuming you have it, also,
it is more than 1 strum per chord, i just couldn't be bothered tabbing that,
figure it out, it shouldn't be hard.
[ Tab from: ]
chords (part1):
e ---0-0-2---2-3-2-------|
b ---0-0-3-1-3-3-3---3---|                  (Em, E, E, D , C, D, D7, D)
g -0-0---2-0-2-2-2-0-0-0-|
d -2-------2-------2-2-2-|
a -2-------3-------2-2-2-|
e -0---------------0-0-0-|

chords (part2):
e ---2-3-2-------    ---2-3-2---2-0-2-|
b -1-3-3-3---3---    -1-3-3-3-1-3-3-3-|     (C, D, D7, D, Em, Em7, E)
g -0-2-2-2-0-0-0- x2 -0-2-2-2-0-2-2-2-|
d -2-------2-2-2-    -2-------2-------|
a -3-------2-2-2-    -3-------3-------|
e ---------0-0-0-    -----------------|

chords (part3):
e -------2-3-2-0-2---------------|
b ---3---3-3-3-3-3-1-------------|          (Em, Em7, Em, D, D7, D, Am)
g -0-0-0-2-2-2-2-2-2-------------|
d -2-2-2-----------2---0--0------|
a -2-2-2-----------0--2--0-------|
e -0-0-0-------------3--2--3-2-0-|

e --------0---0-2-----2-5--3--2--0-------------------0-|
b -------0-0-3---3---3-3-3--3--3-1------------------0--|
g ----0-0---0-----2-2-----2--2---2-----------------0---|
d ---2-2-----------0-------------2----0---0-------2----|
a -------------------------------0---2---0-------2-----|
e ----------------------------------3---2---3-2-0------|

           chords1 x2       This should be played flowing into one another
           chords2 x1       with no pauses.
           chords1 x1
           chords3 x1

I hope you get the rythm right, it really is a rather nice (yet sad) piece.

Any questions, or requests e-mail me at:
or contact my U-G account: Richard 6myth
Related for Richard Sixsmith - Original 1 tab