Song name
# A B C D E F G H I J K L M N O P Q R S T U V W X Y Z

Misc Unsigned Bands - Macross Frontier - Aimo Anime tab

"Aimo" - Macross Frontier: guitar tab
(scaity.vengeance@gmail.com)

Not sure as to whether or not this is middle or easy, I think it's easy but I have 
it as medium.
Anyway, the anime 'Macross Frontier' (A.K.A Robotech) is very unknown as it is only in 
watching this song
called 'Aimo' (one of the main themes),
only Japanese people can play it with a tab at the moment
because the only tabs I can find are in Japanese.

This is the first tab i've ever actually written,
help/constructive criticism is welcomed, you may correct
me if I suck at some point...

Here's the song sung: http://www.youtube.com/watch?v=QTTZ16asNjE


1-------------------|----------------------|
2----3--2--0---0----|--3--3--5--2--0-------|
3----------2--------|----------------------|
4--2----------------|----------------------|
5-------------------|----------------------|
6--0-----------0----|--------------0-------|

1--2----------------|----------------------|
2-----2--0----------|---------3--2--0------|
3-------------------|------------------2---|
4-------------------|--2---0---------------|
5-------------------|----------------------|
6-------------------|--0-------------------|

1----------0--2-----|--0-------------------|
2--0---3---------2--|----------------------|
3-------------------|----------------------|
4-------------------|----------------------|
5--0----------------|----------------------|
6-------------------|--0-------------------|

1--2----------------|--0-------------------|
2------2---0--------|--------3---2---0-----|
3-------------------|-------------------2--|
4-------------------|-----0----------------|
5----------2--------|----------------------|
6-------------------|--0-------------------|

1-------------------|----------------------|
2--0---3--2--0------|--0-------------------|
3---------------2---|----------------------|
4-------------------|----------------------|
5--2----------------|--2-------------------|
6-------------------|----------------------|


Normal tuning, cheers! XD
Tap to rate this tab
# A B C D E F G H I J K L M N O P Q R S T U V W X Y Z