Song name
# A B C D E F G H I J K L M N O P Q R S T U V W X Y Z

Misc Unsigned Bands - The Original Sin - Hopeless tab

Help us improve GuitareTab! Take a short survey!
Hopeless
By The Original Sin
Don't copy us!
The Song May Change

intro
e|----------------------------------------|
B|----------------------------------------|
G|-0--2--3-----2--3----2--3---------------|
D|----------3--------1-------0------------|
A|------------------------------3--1--0---|
E|---------------------------------------3|

e|--------------------------------------|
B|--------------------------------------|
G|--2--3-----2--3----2--3---------------|
D|--------3--------1-------0------------|
A|----------------------------3--1--0--5|
E|-------------------------------------3|

verse
e|---------------------------------------------------------------|
B|---------------------------------------------------------------|
G|---------------------------------------------------------------|
D|--5-x-x-x-5-x-x-x-6-x-x-x-6-x-x-x-5-x-x-x-5-x-x-x-4-x-3-x-2-x--|repeat
A|--3-x-x-x-3-x-x-x-4-x-x-x-4-x-x-x-3-x-x-x-3-x-x-x-2-x-1-x-0-x-6|
E|------------------------------------------------------------x-3|

chorus
e|-----------------------------------------|
B|-2-x-x-4-5-x-4------2-x-x-4-5-x-4--5---4-|
G|-0-x-x-2-3-x-2------0-x-x-2-3-x-2--3---2-|repeat
D|-----------------------------------------|
A|-----------------------------------------|
E|-----------------------------------------|

No Solo Yet

outro
A|4|Really Fast, then hold out, then one big one
E|2|CLASSIC FINISH!!!!!!!!!!!!!!!!!!!!!!!!!!!!!!!!!!!!!!!!

add bass tab and more guitar later
Related for The Original Sin - Hopeless tab