Song name
# A B C D E F G H I J K L M N O P Q R S T U V W X Y Z

Misc Unsigned Bands - Nowhere Fast - 99 Knives tab

Nowhere Fast

99 Knives

Intro/Verse

E----------------------|
B----------------------|
G---7-9-10-12-10-9-10--|
D-00-0-0--0--0--0-0----|
A-00-------------------|
D-00-------------------| x2


E---------------------|
B---------------------|
G---7-9-10-12-10-9-10-|
D-88-8-8--8--8--8-8---|
A---------------------|
D---------------------|


E----------------------|
B----------------11-10-|
G---7-9-10-12-10-------|
D-88-8-8--8--8--8--8---|
A----------------------|
D----------------------|

Chorus
E----------------------------------------------|
B-33333333-------------------------------------|
G-22222222-------------------------------------|
D-00000000-1010101010101010-33333333-5555-7777-|
A-00000000-8-8-8-8-8-8-8-8--33333333-5555-7777-|
D-00000000-8-8-8-8-8-8-8-8--33333333-5555-7777-|


Breakdown/Outro
E------------------------|
B------------------------|
G------------------------|
D-----7-8-7-5------------|
A----5-------8-7-5-7-8-4-|
D-0-0-------------0-0-0--|
Tap to rate this tab
# A B C D E F G H I J K L M N O P Q R S T U V W X Y Z