Song name
# A B C D E F G H I J K L M N O P Q R S T U V W X Y Z

Misc Unsigned Bands - A Traitors Betrayal - My Last Stand tab

Help us improve GuitareTab! Take a short survey!
----------------------------------------------------------------------------
	            My Last Stand - A Traitors Betrayal
----------------------------------------------------------------------------

Tabbed by: Bradley Cameron

Tuning:Drop C

e|-------------------------------------------------------------------------|
B|-------------------------------------------------------------------------|
G|-------------------------------------------------------------------------|
D|-------------------------------------------------------------------------|
A|---------------3-2*-3---------------3-2-1---------------3-2*-3-----------|
E|-0-0-1p0-3-0-0--------0-0-1p0-3-0-0-3-2-1-0-0-1p0-3-0-0--------0-0-1p0-3-|
   . .       . .        . .       . .       . .       . .        . .
e|------------|
B|------------|
G|------------|
D|------------|
A|-----3-2-1--|
E|-0-0-3-2-1--|
   . .
e|-------------------------------------------------------------------------|
B|-------------------------------------------------------------------------|
G|-------------------------------------------------------------------------|
D|-------------------------------------------------------------------------|
A|-3-3-3-3-3-3-3-3-6-6-6-6-6-6-6-6-5-5-5-5-5-5-5-5-11-11-11-11-12-12-12-12-|
E|-3-3-3-3-3-3-3-3-6-6-6-6-6-6-6-6-5-5-5-5-5-5-5-5-11-11-11-11-12-12-12-12-|

e|----------------------|------------------------------------------|
B|----------------------|------------------------------------------|
G|----------------------|------------------------------------------|
D|----------------------|------------------------------------------|Play
A|-3~----6~----5~----0--|-7--7--7h8-5--5--5h8-3--3--3h5p3-5-4-3-1--|four
E|-3~----6~----5~----0--|--00-00-----00-00-----00-00------5-4-3-1--|times
                           .. ..     .. ..     .. ..
e|-------------------------------------------------------------------------|
B|-------------------------------------------------------------------------|
G|-------------------------------------------------------------------------|
D|-------------------------------------------------------------------------|
A|-3-3-3-3-x-x-x-x-x-x-x-x-----6-6-6-6-x-x-x-x-x-x-x-x-----5-5-5-5-x-x-x-x-|
E|-3-3-3-3-x-x-x-x-x-x-x-x-3p0-6-6-6-6-x-x-x-x-x-x-x-x-6p0-5-5-5-5-x-x-x-x-|

e|-------------------------------------------------------------------------|
B|-------------------------------------------------------------------------|
G|-------------------------------------------------------------------------|
D|-------------------------------------------------------------------------|
A|-x-x-x-x-----11-11-11-11-11-11-11-11-12-12-12-12-12-12-12-12-------------|
E|-x-x-x-x-5p0-11-11-11-11-11-11-11-11-12-12-12-12-12-12-12-12-------------|

e|----------------------|------------------------------------------|
B|----------------------|------------------------------------------|
G|----------------------|------------------------------------------|
D|----------------------|------------------------------------------|Play
A|-3~----6~----5~----0--|-7--7--7h8-5--5--5h8-3--3--3h5p3-5-4-3-1--|four
E|-3~----6~----5~----0--|--00-00-----00-00-----00-00------5-4-3-1--|times
                           .. ..     .. ..     .. ..
e|-------------------------------------------------------------------------|
B|-------------------------------------------------------------------------|
G|-------------------------------------------------------------------------|
D|-------------------------------------------------------------------------|
A|-3-3-3-3-3-3-3-3-6-6-6-6-6-6-6-6-5-5-5-5-5-5-5-5-11-11-11-11-12-12-12-12-|
E|-3-3-3-3-3-3-3-3-6-6-6-6-6-6-6-6-5-5-5-5-5-5-5-5-11-11-11-11-12-12-12-12-|
Play four times

e|----------------------|------------------------------------------|
B|----------------------|------------------------------------------|
G|----------------------|------------------------------------------|
D|----------------------|------------------------------------------|
A|-3~----6~----5~----0--|-7--7--7h8-5--5--5h8-3--3--3h5p3-5-4-3-1--|
E|-3~----6~----5~----0--|--00-00-----00-00-----00-00------5-4-3-1--|
                           .. ..     .. ..     .. ..
| /  slide up
| \  slide down
| h  hammer-on
| p  pull-off
| ~  vibrato
| +  harmonic
| x  Mute note
===============================================================================
Related for A Traitors Betrayal - My Last Stand tab