Song name
# A B C D E F G H I J K L M N O P Q R S T U V W X Y Z

Misc Unsigned Bands - Colby Yates - Heading To The Rodeo tab

Capo 1st Fret


Intro
                                    2Xs
E|---3---------------3------------------|------------------------------------|
B|---3---------------3------------------|------------------------------------|
G|---0---0-2-2-2-0---0---0-2-2-2-2h4-0--|------------------------------------|
D|---0---------------0------------------|------------------------------------|
A|---2---------------2------------------|------------------------------------|
E|---3---------------3------------------|------------------------------------|

Verse
(struming)
E|---3----------------------------------|------------------------------------|
B|---3---3------------------------------|------------------------------------|
G|---0---0---0-2-2-2-2h4-0--------------|------------------------------------|
D|---0---2------------------------------|------------------------------------|
A|---2---3------------------------------|------------------------------------|
E|---3----------------------------------|------------------------------------|

Chorus
(struming
E|---3-------2--------------------------|------------------------------------|
B|---3---3---3--------------------------|------------------------------------|
G|---0---0---2--------------------------|------------------------------------|
D|---0---2---0--------------------------|------------------------------------|
A|---2---3------------------------------|------------------------------------|
E|---3----------------------------------|------------------------------------|


Tap to rate this tab
# A B C D E F G H I J K L M N O P Q R S T U V W X Y Z