Guitaretab - guitar tabs
Song name
# A B C D E F G H I J K L M N O P Q R S T U V W X Y Z

Misc Unsigned Bands - Sinsum Trip - Revenge tab

Intro:
----------------------------------------------------------------|
----------------------------------------------------------------|
----------------------------------------------------------------|
-9~~~~9----9999--9999---9999--99-99-------------------------|
-9~~~~9----99-99---99-99---99-99--99-99-------------------------|
-9~~~~9----99-99---99-99---99-99--99-99-------------------------|
Breakdown1:
-991111121211119911111212111199111112121414121211111212------|
-991111121211119911111212111199111112121414121211111212------|X2
-991111121211119911111212111199111112121414121211111212------|

Breakdown2:

-99111112119911111211991111121114121112---------------------|
-99111112119911111211991111121114121112---------------------|X2
-99111112119911111211991111121114121112---------------------|
Verse1:
---------------------------------------------------------------|
---------------------------------------------------------------|
---------------------------------------------------------------|
-9-12-11-7-9---12-117-9---12-11-9-7-6------------------------|
-9-12-11-7-9---12-117-9---12-11-9-7-6------------------------|
-9-12-11-7-9---12-117-9---12-11-9-7-6------------------------|

---------------------------------------------------------------|
---------------------------------------------------------------|
---------------------------------------------------------------|
-9---12-11-7-9---12-11-7-9---12-11-12-1412-11-----------------|
-9---12-11-7-9---12-11-7-9---12-11-12-1412-11-----------------|
-9---12-11-7-9---12-11-7-9---12-11-12-1412-11-----------------|

Verse2:
--------------------------------------------------------------|
--------------------------------------------------------------|
--------------------------------------------------------------|
-9-12-11-7-9---12-117-9---12-11-9-7-6-----------------------|
-9-12-11-7-9---12-117-9---12-11-9-7-6-----------------------|
-9-12-11-7-9---12-117-9---12-11-9-7-6-----------------------|

----------------------------------------------------------------|
----------------------------------------------------------------|
----------------------------------------------------------------|
-99999999999912121111999999999999121211111414141414141414-------|
-99999999999912121111999999999999121211111414141414141414-------|
-99999999999912121111999999999999121211111414141414141414-------|


--------------------------------------------------------------|
--------------------------------------------------------------|
--------------------------------------------------------------|
-121212121111111114141414141414141212121211111111-------------|
-121212121111111114141414141414141212121211111111-------------|
-121212121111111114141414141414141212121211111111-------------|

[ Tab from: http://www.guitaretab.com/m/misc-unsigned-bands/113784.html ]
Chorus:
----------------------------------------------------------------|
----------------------------------------------------------------|
----------------------------------------------------------------|
-99999999888888889999999912121212121212129999999988888888-------|
-99999999888888889999999912121212121212129999999988888888-------|
-99999999888888889999999912121212121212129999999988888888-------|

----------------------------------------------------------------|
----------------------------------------------------------------|
----------------------------------------------------------------|
-55555555444444449999999988888888999999991212121212121212-------|
-55555555444444449999999988888888999999991212121212121212-------|
-55555555444444449999999988888888999999991212121212121212-------|

--------------------------------------------------------------|
--------------------------------------------------------------|
--------------------------------------------------------------|
-1515151515151515141414141414141415151515141414141212121214141414
-1515151515151515141414141414141415151515141414141212121214141414
-1515151515151515141414141414141415151515141414141212121214141414

Bridge:
----------------------------------------------------------------|
----------------------------------------------------------------|
----------------------------------------------------------------|
--999999999999999988888888888888884444444444444444--------------|
--999999999999999988888888888888884444444444444444--------------|
--999999999999999988888888888888884444444444444444--------------|

----------------------------------------------------------------|
----------------------------------------------------------------|
----------------------------------------------------------------|
-33333333222222229999999999999999888888881111111111111111-------|
-33333333222222229999999999999999888888881111111111111111-------|
-33333333222222229999999999999999888888881111111111111111-------|

--------------------------------------------------------------|
--------------------------------------------------------------|
--------------------------------------------------------------|
--99999999888888887777777788888888991212111112121414121211111212
--99999999888888887777777788888888991212111112121414121211111212
--99999999888888887777777788888888991212111112121414121211111212

----------------------------------------------------------------|
----------------------------------------------------------------|
----------------------------------------------------------------|
-991212111112121414121211111212991212111112121414121211111212---|
-991212111112121414121211111212991212111112121414121211111212---|
-991212111112121414121211111212991212111112121414121211111212-


---------------------------------------------------------------|
---------------------------------------------------------------|
---------------------------------------------------------------|
-991111121211111212111112121111--------------------------------|
-991111121211111212111112121111--------------------------------|
-991111121211111212111112121111--------------------------------|

Order:
Intro
Breakdown 1
Verse1
Breakdown 2
Verse2
Chorus
Breakdown 1
Verse1
Breakdown2
Verse2
Chorus
Bridge
Chorus
Related for Sinsum Trip - Revenge tab