Song name
# A B C D E F G H I J K L M N O P Q R S T U V W X Y Z

Misc Unsigned Bands - Erixouther - Asbestos And Coffee tab

-------------------------------------------------------------------------------
	                       ASBESTOS AND COFFEE -- Erixouther
-------------------------------------------------------------------------------
Tabbed by: erixouther
Email: erixouther@gmail.com

my first tab also happens to be the first song i wrote.
PLEASE DON'T STEAL IT!!!

this is meant for an acoustic. i think it sounds ok.

comments, questions, and/or suggestions welcome! just email me.

Tuning: standard

h = hammer on
p = pull off


e|----3--3-3------|----3--3-3-------|----3--3-3-------|----3--3-3-------|
A|----3--3-3------|----3--3-3-------|----3--3-3-------|----3--3-3-------|
D|----0--0-0-----0|----0--0-0------0|----0--0-0---0---|----0--0-0-------|x4
G|----0--0------0-|----2--2-------0-|2---2--2--2-2-2h0|----2--2-----0---|
B|----2--2-----2--|3---3--3--3-0h3--|----3--3---------|3---3--3--3-2-2h0|
E|3---3--3--3-3---|-----------------|-----------------|-----------------|

e|------3---------|------3----------|------3----------|------3----------|
A|----------------|-----------------|-----------------|-----------------|
D|----------------|-----------------|-----------------|-----------------|x2
G|--------------0-|---------------0-|2---------2-2-2h0|-----------------|
B|-------------2--|3---------3-0h3--|-----------------|3---------3-2-2h0|
E|3---------3-3---|-----------------|-----------------|-----------------|

e|----3-33-3------|----3-33-3-------|----3-33-3-------|----3-33-3-------|
A|----3-33-3------|----3-33-3-------|----3-33-3-------|----3-33-3-------|
D|----0-00-0-----0|----0-00-0------0|----0-00-0---0---|----0-00-0-------|x3
G|----0--0------0-|----2--2-------0-|2-2-2--2--2-2-2h0|----2--2-----0---|
B|----2--2-----2--|3-3-3--3--3-0h3--|----3--3---------|3-3-3--3--3-2-2h0|
E|3-3-3--3--3-3---|-----------------|-----------------|-----------------|

e|-3--------------|
A|-3--------------|
D|-0--------------|
G|-0--------------|
B|-2--------------|
E|-3--------------|

-------------------------------------------------------------------------------
Tap to rate this tab
 
# A B C D E F G H I J K L M N O P Q R S T U V W X Y Z