Song name
# A B C D E F G H I J K L M N O P Q R S T U V W X Y Z

Misc Unsigned Bands - Ultrasonicas - Que Grosero tab

-------------------------------------------------------------------------------
			     que grosero
-------------------------------------------------------------------------------
Tabbed by:martin carmona tellez
Email:martin_carmona_1988@yahoo.com.mx

Tuning:standart
intro se repite como cuatro veces escuchen la cancion
e|------------------------------------------------|
B|------------------------------------------------|
G|------------------------------------------------|
D|------------------------------------------5b----|
A|---0-3-5-5b-3-0-3-0-5----0-3-5-5b-3-0-3-0-------|
E|------------------------------------------------|

e|---------------------------------------------------------------|
B|---------------------------------------------------------------|
G|--------------5--------------5--------------5--------------5---|
D|--------------5--------------5--------------5--------------5---|
A|--0-0-0-0-0-0-3--0-0-0-0-0-0-3--0-0-0-0-0-0-3--0-0-0-0-0-0-3---|
E|---------------------------------------------------------------|

e|----------------------------------------------------------------------|
B|----------------------------------------------------------------------|
G|--------------5-2--------------5-2--------------5-2--------------5-2--|
D|--------------5-2--------------5-2--------------5-2--------------5-2--|
A|--0-0-0-0-0-0-3-0--0-0-0-0-0-0-3-0--0-0-0-0-0-0-3-0--0-0-0-0-0-0-3-0--|
E|----------------------------------------------------------------------|
esa es toda la cancion solo escuchenla para que sepan
cuantas veces repetir


| /  slide up
| \  slide down
| h  hammer-on
| p  pull-off
| ~  vibrato
| +  harmonic
| x  Mute note
Tap to rate this tab
# A B C D E F G H I J K L M N O P Q R S T U V W X Y Z