Song name
# A B C D E F G H I J K L M N O P Q R S T U V W X Y Z

Misc Unsigned Bands - Empty Flags - Dont Wanna Stay tab

www.myspace.com/emptyflags

This is a song of my band called Empty Flags if you want to hear the original
visit www.myspace.com/emptyflags

Empty Flags© - Don't Wanna Stay©

Verse:

----------------------------------------------------------------------------|
----------------------------------------------------------------------------|
---------------------9------------------------------------------------------|
-------7------7-------------7------7-------4------4------5------4------4----|
---55-----55-----55-----55-----55-----522-----22-----22-----22-----22-----2-|
----------------------------------------------------------------------------|

---------------------------------------------------------------------------|
---------------------------------------------------------------------------|
---------------------------------------------------------------------------|  x6
-------2------2------4------5------4--------------------4------------------|
---00-----00-----00-----00-----00---------5------5-------------5------5----|
--------------------------------------33-----33-----33-----33-----33-----3-|

Ref.

----------------------------------------------------------------------------|
----------------------------------------------------------------------------|
---7777777777777777---4444444444444444---2222222222222222-------------------|
---7777777777777777---4444444444444444---2222222222222222--5555555555555555-|
---5555555555555555---2222222222222222---0000000000000000--5555555555555555-|
-----------------------------------------------------------3333333333333333-|


Solo:


---------------------------------------------------------------------------|
---------------------------------------------------------------------------|
--77777777----77777777---77777777----77777777------------------------------|
--77777777----77777777---77777777----77777777------------------------------|
--55555555-----------------------------------------------------------------|
--------------77777777---55555555----33333333------------------------------|
Tap to rate this tab
# A B C D E F G H I J K L M N O P Q R S T U V W X Y Z