Song name
# A B C D E F G H I J K L M N O P Q R S T U V W X Y Z

Misc Unsigned Bands - The More Assured - All In Your Head tab

the more assured-all in your head

intro


e|----------------------------------------------------|
B|----6---6---6---6-6-6-6-10-10-10-8------------------|
G|--7---7---7---7-------------------------------------|
D|----------------------------------------------------|
A|----------------------------------------------------|
E|----------------------------------------------------|


e|----------------------------------------------------|
B|----6---6---6---6-6-6-6-10-10-10-11-----------------|
G|--7---7---7---7-------------------------------------|
D|----------------------------------------------------|
A|----------------------------------------------------|
E|----------------------------------------------------| x2

e|----------------------------------------------------|
B|----6---6---6---11-11-11-10-10-10-8-6---------------|
G|--7---7---7---7-------------------------------------|
D|----------------------------------------------------|
A|----------------------------------------------------|
E|----------------------------------------------------|

e|--------8--5----------------------------------------|
B|---5-5-------8-----------8(bend)x5--6s10-8----------|
G|----------------x6---------------------------10-----|
D|----------------------------------------------------|
A|----------------------------------------------------|
E|----------------------------------------------------|

http://www.myspace.com/themoreassured


Tap to rate this tab
 
# A B C D E F G H I J K L M N O P Q R S T U V W X Y Z