Song name
# A B C D E F G H I J K L M N O P Q R S T U V W X Y Z

Misc Unsigned Bands - Nick Schileru - Just Enough tab

  		     Just Enough Intro - Nick Schileru
-------------------------------------------------------------------------------
Tabbed by:Nick Schileru
Email:nickabc725@gmail.com

Tuning:Standard

e|-3-----3-----3-------3------5--------5------7-----5------3-----3--3-----3--|
B|---3------------3--------------5---------------------------3--------3------|
G|-----0-------------0--------------0--------------------------0--------0----|
D|---------------------------------------------------------------------------|
A|-------------3--------------5---------------7-----5------3--------3--------|
E|-3-------------------------------------------------------------------------|

e|-3-----3-----3-------3------5--------5------7-----5------3-----3--3-----3--|
B|---3------------3--------------5---------------------------3--------3------|
G|-----0-------------0--------------0--------------------------0--------0----|
D|---------------------------------------------------------------------------|
A|-------------3--------------5---------------7-----5------3--------3--------|
E|-3-------------------------------------------------------------------------|

e|-3-----3-----3-------3------5--------5------7-----5------3-----3--3-----3--|
B|---3------------3--------------5---------------------------3--------3------|
G|-----0-------------0--------------0--------------------------0--------0----|
D|---------------------------------------------------------------------------|
A|-------------3--------------5---------------7-----5------3--------3--------|
E|-3-------------------------------------------------------------------------|

Thats just the intro do it three times then the chorus comes but i still need to tab that
Tap to rate this tab
# A B C D E F G H I J K L M N O P Q R S T U V W X Y Z