Song name
# A B C D E F G H I J K L M N O P Q R S T U V W X Y Z

Misc Unsigned Bands - Steel Rebellion - Holy Diver tab

this is my bands cover of holy diver by dio. it is simpler and easier to play
that the original. the solo is practicly the same. 

----------------------------------------------------------------------------
			     holy diver - steel rebellion (dio cover)
----------------------------------------------------------------------------
Tabbed by:jake taylor (steel rebellion)

Tuning:standard
                                                   (riff 1)
e|-------------------------------------------------------------------------|
B|-------------------------------------------------------------------------|
G|-------------------------------------------------------------------------|
D|-------------------------------------------------------------------------|
A|-0---5-------5-------5-6-7\5-------5-------8-3-/5-------5-------8\3/5\3/5|
E|-0---5--5-5--5--5-5--5-6-7\5--5-5--5--5-5--8-3-/5--5-5--5--5-5--8\3/5\3/5|

e|-------------------------------------------------------------------------|
B|-------------------------------------------------------------------------|
G|-------------------------------------------------------------------------|
D|-----------------------------------------------------------------------6-|
A|-5-------5-------5-6-7\5-------5-------8-3-/5-------5-------8\3/5\3/5--6-|
E|-5--5-5--5--5-5--5-6-7\5--5-5--5--5-5--8-3-/5--5-5--5--5-5--8\3/5\3/5----|


                                                   (riff 2)
e|-------------------------------------------------------------------------|
B|-------------------------------------------------------------------------|
G|-------------------------------------------------------------------------|
D|-----------------------------6-------------------------------------------|
A|-5-------5-------5-------5---6----5-------5-------3-------3-------6-6-6-6|
E|-5--5-5--5--5-5--5--5-5--5--------5--5-5--5--5-5--3--3-3--3--3-3--6-6-6-6|



                    (riff 3)                           (riff 1 reapeated)
e|-------------------------------------------------------------------------|
B|-------------------------------------------------------------------------|
G|-------------------------------------------------------------------------|
D|-------------------------------------------------------------------------|
A|-0---5-------5-------5-6-7\5-------5-------8-3-/5-------5-------8\3/5\3/5|
E|-0---5--5-5--5--5-5--5-6-7\5--5-5--5--5-5--8-3-/5--5-5--5--5-5--8\3/5\3/5|

e|-------------------------------------------------------------------------|
B|-------------------------------------------------------------------------|
G|-------------------------------------------------------------------------|
D|-----------------------------------------------------------------------6-|
A|-5-------5-------5-6-7\5-------5-------8-3-/5-------5-------8\3/5\3/5--6-|
E|-5--5-5--5--5-5--5-6-7\5--5-5--5--5-5--8-3-/5--5-5--5--5-5--8\3/5\3/5----|



                                                     (solo)
e|-----------------------------------------------------------------|
B|--11b12r11-9-----------------------------------------------------|
G|--11b12r11-9-11-9----------9-8-6-6~/-----------------------------|
D|------------------11-9-9~--9-8-6-6~/-----------------------------|
A|---------------------x---------------9--7-6h7p6h7p6h7p6h7p6h7-/--|
E|-----------------------------------------------------------------|



e|-----------------------------------------------------------------|
B|-----------------------------------------------------------------|
G|--9----9/8-8-8~--------------------------------------6*----------|
D|----11-9/8-8-8~--9--11--11~---9----------------------------------|
A|-----------------x--x---------x-11-10-9--7--9b10r9~--------------|
E|--------------------------------x--x--x--x-----------------------|



e|--19b20-17-16----------------19----------------------------------|
B|--------------17-16-19-17-16----17-16~---------------------------|
G|-----------------------------------------------------------------|
D|-----------------------------------------------------------------|
A|-----------------------------------------------------------------|
E|-----------------------------------------------------------------|


e|--19-17-16-------------------------------------------------------|
B|-----------19-17-16----------------------------------------------|
G|--------------------18-16-18-18b20r18-16----16~/-----------------|
D|-----------------------------------------18----------------------|
A|-----------------------------------------------------------------|
E|-----------------------------------------------------------------|


e|-----------------------------------------------------------------|
B|-9h10p9p7-------9-10--9h10p9p7--7-9-7----------------------------|
G|----------8-9-9-----------------------9-8-9-8h9p8p6--------------|
D|----------------------------------------------------9------------|
A|-----------------------------------------------------------------|
E|-----------------------------------------------------------------|



e|-------------------------------------------7---------------------|
B|-9-10--9h10p9p7-9-7-------9-10--9h10p9p7-9---9h10p9p7/9 10-------|
G|--------------------8-9-9----------------------------------------|
D|-----------------------------------------------------------------|
A|-----------------------------------------------------------------|
E|-----------------------------------------------------------------|



e|-12-11-9--------12-11-9-11p9----9--------------------------------|
B|--------12-10-9--------------12---12p9-10p9----9-----------------|
G|--------------------------------------------11---11p9-8-8/9-9----|
D|-----------------------------------------------------------------|
A|-----------------------------------------------------------------|
E|-----------------------------------------------------------------|



e|-----------------------------------------------------------------|
B|------------------12-12-12--10-10-10-9---------------------------|
G|-9/11-11-11/13-13----------------------11-9-11b12-9-8~-----------|
D|-----------------------------------------------------------------|
A|-----------------------------------------------------------------|
E|-----------------------------------------------------------------|


Everything below is right after the solo. 

e|--------------------------------------------------------|
B|--------------------------------------------------------|repeat this 2x
G|--------------------------------------------------------| again.
D|--5-55-5-55-5-55-5-----5-55-5-55-3-33-3-33--------------|
A|--3-33-3-33-3-33-3-6---3-33-3-33-1-11-1-11-6-66-6-66-6--|
E|-------------------4-----------------------4-44-4-44-4--|
    
e|------------------------------------|  
B|------------------------------------|  repeat that over and over then it 
G|------------------------------------|          slowly fades 
D|--5-55-5-55-5-7-8--5-55-5-55-8-3----|
A|--3-33-3-33-3-5-6--3-33-3-33-6-1----|
E|------------------------------------|






Tap to rate this tab
# A B C D E F G H I J K L M N O P Q R S T U V W X Y Z