Song name
# A B C D E F G H I J K L M N O P Q R S T U V W X Y Z

Misc Unsigned Bands - Sarahs Redemption - Autumn Song tab

“AUTUMN SONG” by SARAH’S REDEMPTION


Recorded version used 2 guitars:
Guitar 1 - Tune one half-step down (D# G# C# F# A# D#)
Guitar 2 - Tune to drop D tuning, one half-step down (C# G# C# F# A# D#)


VERSE

GUITAR 1 - (LEFT SPEAKER) - Half-step
----------------------------------------------------------------|
-5-5-5-5-5-5-5-3-3-3-3-3-3-3-3-5-5-5-5-5-5-5-5-3-3-3-3-3-3-3-3--|
-2-2-2-2-2-2-2-2-2-2-2-2-2-2-2-2-2-2-2-2-2-2-2-2-2-2-2-2-2-2-2--|
-0-0-0-0-0-0-0-0-0-0-0-0-0-0-0-0-0-0-0-0-0-0-0-0-0-0-0-0-0-0-0--|
----------------------------------------------------------------|
----------------------------------------------------------------|


-2-2-2-2-2-2-2-0-0-0-0-0-0-0-0-2-2-2-2-2-2-2-2------------------|
-3-3-3-3-3-3-3-3-3-3-3-3-3-3-3-3-3-3-3-3-3-3-3-3-3-3-3-3-3-3-3--|
-2-2-2-2-2-2-2-2-2-2-2-2-2-2-2-2-2-2-2-2-2-2-2-2-2-2-2-2-2-2-2--|
-0-0-0-0-0-0-0-0-0-0-0-0-0-0-0-0-0-0-0-0-0-0-0-0-0-0-0-0-0-0-0--|
-x-x-x-x-x-x-x-x-x-x-x-x-x-x-x-x-x-x-x-x-x-x-x-x-x-x-x-x-x-x-x--|
-3-3-3-3-3-3-3-3-3-3-3-3-3-3-3-3-3-3-3-3-3-3-3-3-3-3-3-3-3-3-3--|

GUITAR 2 - (RIGHT SPEAKER) - Drop D Half-step
-------------------------------------------------|
-10-10-10-10-7--7--7--7--10-10-10-10-7--7--7--7--|
-7--7--7--7--7--7--7--7--7--7--7--7--7--7--7--7--|
-0--0--0--0--0--0--0--0--0--0--0--0--0--0--0--0--|
-0--0--0--0--0--0--0--0--0--0--0--0--0--0--0--0--|
-0--0--0--0--0--0--0--0--0--0--0--0--0--0--0--0--|

----------------------------------------------------------------|
----------------------------------------------------------------|
-7-7-7-7-7-7-7-7-7-7-7-7-7-7-7-7-7-7-7-7-7-7-7-7-7-7-7-7-7-7-7--|
-7-7-7-7-7-7-7-7-7-7-7-7-7-7-7-7-7-7-7-7-7-7-7-7-7-7-7-7-7-7-7--|
-5-5-5-5-5-5-5-5-5-5-5-5-5-5-5-5-5-5-5-5-5-5-5-5-5-5-5-5-5-5-5--|
-5-5-5-5-5-5-5-5-5-5-5-5-5-5-5-5-5-5-5-5-5-5-5-5-5-5-5-5-5-5-5--|


PRE-CHORUS


GUITAR 1
----------------------------------------------------------------|
-3-3-3-3-3-3-2-2-2-2-2-2-2-3-3-3-3-3-3-3-3-3-3-3-3--------------|
-2-2-2-2-2-2-2-2-2-2-2-2-2-2-2-2-2-2-2-2-2-2-2-2-2--------------|
-0-0-0-0-0-0-2-2-2-2-2-2-2-0-0-0-0-0-0-0-0-0-0-0-0--------------|
-2-2-2-2-2-2-0-0-0-0-0-0-0-x-x-x-x-x-x-x-x-x-x-x-x--------------|
---------------------------3-3-3-3-3-3-3-3-3-3-3-3--------------|
GUITAR 2
----------------------------------------------------------------|
----------------------------------------------------------------|
-------------------------------------7-7-7-7-7-7-7-7-7-7-7-7----|
-12-12-12-12-12-12-11-11-11-11-11-11-7-7-7-7-7-7-7-7-7-7-7-7----|
-9--9--9--9--9--9--7--7--7--7--7--7--5-5-5-5-5-5-5-5-5-5-5-5----|
-9--9--9--9--9--9--7--7--7--7--7--7--5-5-5-5-5-5-5-5-5-5-5-5----|


CHORUS

GUITAR 1
-2-2-2-2-2-2-3-3-3-3-3-3----------------------------------------|
-3-3-3-3-3-3-3-3-3-3-3-3-3-3-3-3-3-3-3-3-3-3-3-3----------------|
-2-2-2-2-2-2-0-0-0-0-0-0-2-2-2-2-2-2-2-2-2-2-2-2----------------|
-0-0-0-0-0-0-2-2-2-2-2-2-0-0-0-0-0-0-0-0-0-0-0-0----------------|
-------------2-2-2-2-2-2-x-x-x-x-x-x-x-x-x-x-x-x----------------|
-------------0-0-0-0-0-0-3-3-3-3-3-3-3-3-3-3-3-3----------------|


----------------------------------------------------------------|
-3-3-3-3-3-3-2-2-2-2-2-2-3-3-3-3-3-3-3-3-3-3-3-3----------------|
-2-2-2-2-2-2-2-2-2-2-2-2-2-2-2-2-2-2-2-2-2-2-2-2----------------|
-0-0-0-0-0-0-2-2-2-2-2-2-0-0-0-0-0-0-0-0-0-0-0-0----------------|
-2-2-2-2-2-2-0-0-0-0-0-0-x-x-x-x-x-x-x-x-x-x-x-x----------------|
-------------------------3-3-3-3-3-3-3-3-3-3-3-3----------------|

GUITAR 2
----------------------------------------------------------------|
-3-3-3-3-3-3-3-3-3-3-3-3----------------------------------------|
-2-2-2-2-2-2-0-0-0-0-0-0-7-7-7-7-7-7-7-7-7-7-7-7----------------|
-0-0-0-0-0-0-2-2-2-2-2-2-7-7-7-7-7-7-7-7-7-7-7-7----------------|
-0-0-0-0-0-0-2-2-2-2-2-2-5-5-5-5-5-5-5-5-5-5-5-5----------------|
-0-0-0-0-0-0-2-2-2-2-2-2-5-5-5-5-5-5-5-5-5-5-5-5----------------|


----------------------------------------------------------------|
----------------------------------------------------------------|
-------------------------------------7-7-7-7-7-7-7-7-7-7-7-7----|
-12-12-12-12-12-12-11-11-11-11-11-11-7-7-7-7-7-7-7-7-7-7-7-7----|
-9--9--9--9--9--9--7--7--7--7--7--7--5-5-5-5-5-5-5-5-5-5-5-5----|
-9--9--9--9--9--9--7--7--7--7--7--7--5-5-5-5-5-5-5-5-5-5-5-5----|

BRIDGE

GUITAR 1
----------------------------------------------------------------|
-3-3-3-3-3-3-3-3-3-3-3-3-3-3-3-3-3-3-3-3-3-3-3-3----------------|
-2-2-2-2-2-2-2-2-2-2-2-2-2-2-2-2-2-2-2-2-2-2-2-2----------------|
-0-0-0-0-0-0-0-0-0-0-0-0-0-0-0-0-0-0-0-0-0-0-0-0----------------|
-x-x-x-x-x-x-x-x-x-x-x-x-x-x-x-x-x-x-x-x-x-x-x-x----------------|
-2-2-2-2-2-2-3-3-3-3-3-3-2-2-2-2-2-2-3-3-3-3-3-3----------------|
GUITAR 2
----------------------------------------------------------------|
----------------------------------------------------------------|
-6-6-6-6-6-6-7-7-7-7-7-7-6-6-6-6-6-6-7-7-7-7-7-7----------------|
-7-7-7-7-7-7-7-7-7-7-7-7-7-7-7-7-7-7-7-7-7-7-7-7----------------|
-4-4-4-4-4-4-5-5-5-5-5-5-4-4-4-4-4-4-5-5-5-5-5-5----------------|
-4-4-4-4-4-4-5-5-5-5-5-5-4-4-4-4-4-4-5-5-5-5-5-5----------------|

LYRICS

It’s come to be that time of year
when the leaves have fallen and the trees are bare
and your lungs begin to breathe in cold air.
Now, you sit idle in the parking lot,
of some old abandoned hangout spot,
and you try to comprehend the things you’re not.

With one shallow breath, you calculate your costs,
and with one sigh of regret, you tell yourself you’ve lost.

I won’t watch you die the same slow painful death, night after night.
I won’t watch you cry over the same subjects night after night.

You sit calm in this subway car,
taking you so very far,
and every day that passes is so hard.
You struggle to find the words to say,
but no one can understand anyway
just how hard it is at the end of the day.

With one shallow breath, you calculate your costs,
and with one sigh of regret, you tell yourself you’ve lost.

I won’t watch you die the same slow painful death, night after night.
I won’t watch you cry over the same subjects night after night.

Maybe it’s so that autumn just wasn’t our season…
Tap to rate this tab
# A B C D E F G H I J K L M N O P Q R S T U V W X Y Z