Guitaretab - guitar tabs
Song name
# A B C D E F G H I J K L M N O P Q R S T U V W X Y Z

Misc Unsigned Bands - Blood Tsunami - Killing Spree tab

Killing Spree - Blood Tusnami
Tabbed by: Ze_Metal
Email: Ibanez4metal@yahoo.com

Tuning: D standard

This is the Intro and the chorus. If anyone could help tab the rest that would be GREAT.
You can find the band on myspace they have a record deal but aren't popular yet. You can also 
their songs to make it easier to transcribe.

Intro

     PM       PM
e|---------------------------------------------------------------------------|
B|---------------------------------------------------------------------------|
G|---------------------------------------------------------------------------|
D|-2--222--2--222------32---1------------------------------------------------|
A|-2--222--2--222---------3---231--------------------------------------------|
E|-0--000--0--000--323------------23-----------------------------------------|

      PM      PM                                     1.
e|---------------------------------------------------------------------------|
B|---------------------------------------------------------------------------|
G|---------------------------------------------------------------------------|
D|-2--222--2--222--------------32--------------------------------------------|
A|-2--222--2--222-------02--------32-----------------------------------------|
E|-0--000--0--000--323------31--------3--------------------------------------|
[ Tab from: http://www.guitaretab.com/m/misc-unsigned-bands/113952.html ]
                                                     2.
e|---------------------------------------------------------------------------|
B|---------------------------------------------------------------------------|
G|---------------------------------------------------------------------------|
D|---------------------------------------------------------------------------|
A|-5-4-5-7-5-4---------------------------------------------------------------|
E|-3-2-3-5-3-2---------------------------------------------------------------|


Repeat the whole thing once more.


e|---------------------------------------------------------------------------|
B|---------------------------------------------------------------------------|
G|---------------------------------------------------------------------------|
D|---------------------------------------------------------------------------|
A|-5-4-5-7-5-4---------------------------------------------------------------|
E|-3-2-3-5-3-2---------------------------------------------------------------|

x2  Add a G5 on the 6th string after you play that twice.

Chorus.

e|-----------------------------------------------------------------------------|
B|-----------------------------------------------------------------------------|
G|-----------------------------------------------------------------------------|
D|--2---------5-4--------------------------------------------------------------|
A|--2-----5-7------5-7----7-8-9-----2-3-5-3-2-----2----------------------------|
E|--0---------------------5-7-8-----------------5---3-2------------------------|

x2


| /  slide up
| \  slide down
| h  hammer-on
| p  pull-off
| ~  vibrato
| +  harmonic
| x  Mute note
===============================================================================
Related for Blood Tsunami - Killing Spree tab