Song name
# A B C D E F G H I J K L M N O P Q R S T U V W X Y Z

Misc Unsigned Bands - Ed2shred - Aftermath tab

Aftermath by Ed aka:Edtoshred/Ed the Guitar Nerd
Tabbed by drawnacrol

Ed plays it in Eb tuning but I have the tab in E tuning.
These sweeps aren't exactly the way Ed plays them,their hard to tab and are in odd
so guitar pro didn't give them justice,enjoy anyways!!!!!This is a great sweep picking
melodic yet technical. Aim for a smooth legato style approach,so their is a flow but 
any notes bledding into each other so a strong sweep technique is needed.


 Arpeggio Section:
|-18p14----------------------------14-16p13----------------------------13-|
|-------16----------------------16----------14----------------------14----|
|*---------15----------------15----------------13----------------13-------|
|*------------16----------16----------------------15----------15----------|
|----------------18p13h18----------------------------16p11h16-------------|
|-------------------------------------------------------------------------|


|-16/18p14----------------------------14h18/21p18----------------------------18h21-|
|----------16----------------------16-------------19----------------------19-------|
|-------------15----------------15-------------------18----------------18----------|
|----------------16----------16-------------------------20----------20-------------|
|-------------------18p13h18-------------------------------21p16h21----------------|
|----------------------------------------------------------------------------------|


|-14p11---------------------------11h14t19p14p11----------------|
|-------12---------------------12----------------12-------------|
|----------11---------------11----------------------11----------|
|-------------13---------13----------------------------13-------|
|----------------14p9h14----------------------------------------|
|---------------------------------------------------------------|


|------------------11h14t21p14t21p14p11----------------|
|---------------12----------------------12-------------|
|------------11----------------------------11----------|
|---------13----------------------------------13-------|
|-14p9h14----------------------------------------------|
|------------------------------------------------------|


|-------------------11h14t19p14p11----------11h14t21---|
|----------------12----------------12----12------------|
|-------------11----------------------11--------------*|
|----------13-----------------------------------------*|
|-14p11h14---------------------------------------------|
|------------------------------------------------------|
Tap to rate this tab
# A B C D E F G H I J K L M N O P Q R S T U V W X Y Z