Song name
# A B C D E F G H I J K L M N O P Q R S T U V W X Y Z

Misc Unsigned Bands - Breaking Dawn - Not To Make A Sound tab

Help us improve GuitareTab! Take a short survey!
Well this is it.
I'm not to finished with the 2cd guitar part. ^^"

Standard Tuning

Guitarist-Yoshii

One, u can either strum each note as it looks like without sliding or
Two, u can slide the whole thing and strum when ur finger passes
the note. either way u want. no sliding means stretching each finger. This song's good 
train ur fingers to stretch. ^^

Verse 1
e----------------------------------------------------------|
b--9-7-5-3-5---5-3-5-7-5-3-0--9-7-5-3-5---5-3-5-6-5-3------|
g----------------------------------------------------------|
D----------------------------------------------------------|
A----------------------------------------------------------|
E----------------------------------------------------------|

play that till this part comes on...

Chorus                            x2                                x2
e---------------------------------------------------------------------------|
b--9-9-9-9-9-9-9-9-7-7-7-5-5-5-3/----8-8-8-8-8-8-8-8-6-6-6-4-4-4-2/---------|
g---------------------------------------------------------------------------|
D---------------------------------------------------------------------------|
A---------------------------------------------------------------------------|
E---------------------------------------------------------------------------|


---Verse 1---

again play till the chorus.

---Chorus---x1

--Solo--
                                                           x2
e--------------------------------------------------------------|
b-9-99-99/12-12-1212-1212\11-11-1111-1111\10-10-1010-1010\9----|
g--------------------------------------------------------------|
D--------------------------------------------------------------|
A--------------------------------------------------------------|
E--------------------------------------------------------------|

e----------------------------------------------------------------|
b-9-10-11-12-9-10-11-12-9--10--11--12--9---10---11---12b~--------|
g----------------------------------------------------------------|
D----------------------------------------------------------------|
A----------------------------------------------------------------|
E----------------------------------------------------------------|

e---------------------------------------------------------------|
b-9--9--9--9--13-13-13-12-12-12-11------------------------------|
g---------------------------------------------------------------|
D---------------------------------------------------------------|
A---------------------------------------------------------------|
E---------------------------------------------------------------|

e--------------------------------------------------------------|
b-9-10-11-12-9-10-11-12-13-13-13-12-12-12-11-------------------|
g--------------------------------------------------------------|
D--------------------------------------------------------------|
A--------------------------------------------------------------|
E--------------------------------------------------------------|

e---------------------------------------------------------------------|
b-9h10h11h12-9h10h11h12-9h10h11h12-9h10h11h12-13-13-13-12-12-12-14----|
g---------------------------------------------------------------------|
D---------------------------------------------------------------------|
A---------------------------------------------------------------------|
E---------------------------------------------------------------------|

-again u can do like the beginning and slide and strum when u pass the note-
e-----------------------------------------------------------------------|
b-9-10-11-12-13-12-11-10-9-10-11-12-13-12-11-10-9-10-11-12-13-12-11-10--|
g-----------------------------------------------------------------------|
D-----------------------------------------------------------------------|
A-----------------------------------------------------------------------|
E-----------------------------------------------------------------------|

--only strum the first nine--
e--------------------------------------------------------------|
b-9/12-\9-/12-\9-----------------------------------------------|
g--------------------------------------------------------------|
D--------------------------------------------------------------|
A--------------------------------------------------------------|
E--------------------------------------------------------------|

-again u can do like the beginning and slide and strum when u pass the note-
e-----------------------------------------------------------------------|
b-9-10-11-12-13-12-11-10-9-10-11-12-13-12-11-10-9-10-11-12-13-12-11-10--|
g-----------------------------------------------------------------------|
D-----------------------------------------------------------------------|
A-----------------------------------------------------------------------|
E-----------------------------------------------------------------------|

-only strum the nines-
e--------------------------------------------------------------|
b-9/11-\1-/11-\9-----------------------------------------------|
g--------------------------------------------------------------|
D--------------------------------------------------------------|
A--------------------------------------------------------------|
E--------------------------------------------------------------|

--Chorus 2--
e--------------------------------------------------------------|
b-9--9--9--9--7-7-7-5-5-5-3/9--9--9--9--9--7-7-7-5-5-5-3/------|
g--------------------------------------------------------------|
D--------------------------------------------------------------|
A--------------------------------------------------------------|
E--------------------------------------------------------------|

e--------------------------------------------------------------|
b-8--8--8--8--6-6-6-4-4-4-2/8--8--8--8--8--6-6-6-4-4-4-2/------|
g--------------------------------------------------------------|
D--------------------------------------------------------------|
A--------------------------------------------------------------|
E--------------------------------------------------------------|

e--------------------------------------------------------------|
b-9-9-9-9-9-9-9-9-13-13-13-12-12-12-11-------------------------|
g--------------------------------------------------------------|
D--------------------------------------------------------------|
A--------------------------------------------------------------|
E--------------------------------------------------------------|

e-------------------------------------------------------------------|
b-9h10h11h12-9h10h11h12-9h10h11h12-9h10h11h12-13-13-13-12-12-12-14--|
g-------------------------------------------------------------------|
D-------------------------------------------------------------------|
A-------------------------------------------------------------------|
E-------------------------------------------------------------------|

e------------------------------------------------------------------------|
b-9-10-11-12-13-12-11-10-9-10-11-12-13-12-11-10-9-10-11-12-13-12-11-10---|
g------------------------------------------------------------------------|
D------------------------------------------------------------------------|
A------------------------------------------------------------------------|
E------------------------------------------------------------------------|

e--------------------------------------------------------------|
b-9/12-\9-/12-\9-----------------------------------------------|
g--------------------------------------------------------------|
D--------------------------------------------------------------|
A--------------------------------------------------------------|
E--------------------------------------------------------------|

e------------------------------------------------------------------------|
b-9-10-11-12-13-12-11-10-9-10-11-12-13-12-11-10-9-10-11-12-13-12-11-10---|
g------------------------------------------------------------------------|
D------------------------------------------------------------------------|
A------------------------------------------------------------------------|
E------------------------------------------------------------------------|
                                                 x4
e--------------------------------------------------------------------------|
b-9-10-11-12-13-14-15-16-17-16-15-14-13-12-11-10-----9---------------------|
g--------------------------------------------------------------------------|
D--------------------------------------------------------------------------|
A--------------------------------------------------------------------------|
E--------------------------------------------------------------------------|

that should be it. its an easy song.
Related for Breaking Dawn - Not To Make A Sound tab