Song name
# A B C D E F G H I J K L M N O P Q R S T U V W X Y Z

Misc Unsigned Bands - Gravis - Solemn Promise tab

Gravis - Solemn Promise
Sorry couldn't figure out the solos

Intro (just Guitar 1)
Eb|---------------------------------|---------------------------------|
Bb|---------------------------------|---------------------------------|
Gb|-----2---------------2-----------|---------------------------------|rpt
Db|-0-0---3---------0-0---3---3/5---|-----2---------------2-----------|x2
Ab|---------------------------------|-0-0---3---------0-0---3---3/5---|
Eb|---------------------------------|---------------------------------|
(Guitar 1&2)
Eb|---------------------------------|---------------------------------|
Bb|---------------------------------|---------------------------------|
Gb|-----2---------------2-----------|---------------------------------|rpt
Db|-0-0---3---------0-0---3---3/5---|-----2---------------2-----------|x2
Ab|---------------------------------|-0-0---3---------0-0---3---3/5---|
Eb|---------------------------------|---------------------------------|

Pre-Verse (Guitar 1&2)
Eb|---------------------------------|---------------------------------|
Bb|---------------------------------|---------------------------------|
Gb|-----2---3---2-------2---3---2---|---------------------------------|rpt
Db|-0-0---3---3---3-0-0---3---3---3-|-----2---3---2-------2---3---2---|x2
Ab|---------------------------------|-0-0---3---3---3-0-0---3---3---3-|
Eb|---------------------------------|---------------------------------|

Eb|---------------------------------|---------------------------------|
Bb|---------------------------------|---------------------------------|
Gb|-----2-------2-------2---3---2---|---------------------------------|rpt
Db|-0-0---3-0-0---3-0-0---3---3---3-|-----2-------2-------2---3---2---|x2
Ab|---------------------------------|-0-0---3-0-0---3-0-0---3---3---3-|
Eb|---------------------------------|---------------------------------|

Verse (Guitar 1)
Eb|---------------------------------|---------------------------------|
Bb|---------------------------------|---------------------------------|
Gb|-----2-------2-------2---3---2---|---------------------------------|rpt
Db|-0-0---3-0-0---3-0-0---3---3---3-|-----2-------2-------2---3---2---|x2
Ab|---------------------------------|-0-0---3-0-0---3-0-0---3---3---3-|
Eb|---------------------------------|---------------------------------|
(Guitar 2)
Eb|---------------------------------|---------------------------------|
Bb|---------------------------------|---------------------------------|
Gb|-7~----------------------x-x-x-x-|---------------------------------|rpt
Db|-7~----------------------x-x-x-x-|-7~--------------------------x-x-|x2
Ab|-5~----------------------x-x-x-x-|-7~--------------------------x-x-|
Eb|---------------------------------|-5~--------------------------x-x-|

pre-Chorus (Guitar 1&2)
Eb|---------------------------------|---------------------------------|
Bb|---------------------------------|---------------------------------|
Gb|-7~--------------10~-----9~------|-------------------------9~------|
Db|-7~--------------10~-----9~------|-7~--------------10~-----9~------|
Ab|-5~--------------8~------7~------|-7~--------------10~-----7~------|
Eb|---------------------------------|-5~--------------8~--------------|

Chorus (Guitar 1)
Eb|---------------------------------|---------------------------------|
Bb|---------------------------------|---------------------------------|
Gb|-----2---------3---------2-------|---------------------------------|rpt
Db|-0-0-----3---0-----0-3-------3---|-----2---------3---------2-------|x2
Ab|---------------------------------|-0-0-----3---0-----0-3-------3---|
Eb|---------------------------------|---------------------------------|
(Guitar 2)
Eb|---------------------------------|---------------------------------|
Bb|---------------------------------|---------------------------------|
Gb|-7~--------------10~-----9~------|-------------------------9~------|rpt
Db|-7~--------------10~-----9~------|-7~--------------10~-----9~------|x2
Ab|-5~--------------8~------7~------|-7~--------------10~-----7~------|
Eb|---------------------------------|-5~--------------8~--------------|

(guitar 1&2)
Eb|---------------------------------|---------------------------------|
Bb|-----------------6-666-5---------|-----------------------------5---|
Gb|-7-777-5-7~--------------5~------|-----------------5-555-4-------5-|
Db|---------------------------------|-7-777-5-7~--------------5-------|
Ab|---------------------------------|---------------------------------|
Eb|---------------------------------|---------------------------------|

Eb|---------------------------------|---------------------------------|
Bb|-----------------6-666-5---------|---------------------------------|
Gb|-7-777-5-7~--------------5~------|-----------------5-555-4---------|
Db|---------------------------------|-7-777-5-7~--------------5-------|
Ab|---------------------------------|---------------------------------|
Eb|---------------------------------|---------------------------------|

Break (guitar 1&2)
Eb|---------------------------------|---------------------------------|
Bb|----------hphphp----------hphphp-|---------------------------------|
Gb|-----2---2323232-----2---2323232-|----------hphphp----------hphphp-|rpt
Db|-0-0---3---------0-0---3---------|-----2---2323232-----2---2323232-|x2
Ab|---------------------------------|-0-0---3---------0-0---3---------|
Eb|---------------------------------|---------------------------------|

Pre-Verse
Verse
Pre-Chorus
Chorus

1st Solo (Guitar 2)
Eb|---------------------------------|---------------------------------|
Bb|---------------------------------|---------------------------------|
Gb|-7---x-x-7---x-x-10--x-x-9---x-x-|-------------------------9---x-x-|rpt
Db|-7---x-x-7---x-x-10--x-x-9---x-x-|-7---x-x-7---x-x-10--x-x-9---x-x-|x4
Ab|-5---x-x-5---x-x-8---x-x-7---x-x-|-7---x-x-7---x-x-10--x-x-7---x-x-|
Eb|---------------------------------|-5---x-x-5---x-x-8---x-x---------|

(Guitar 1&2)
Eb|---------------------------------|---------------------------------|
Bb|---------------------------------|---------------------------------|
Gb|-----2---------3---------2-------|---------------------------------|rpt
Db|-0-0-----3-0-0---0-0-3-------3---|-----2---------3---------2-------|x4
Ab|---------------------------------|-0-0-----3-0-0---0-0-3-------3---|
Eb|---------------------------------|---------------------------------|

Eb|---------------------------------|
Bb|---------------------------------|
Gb|-7~------------------------------|
Db|-7~------------------------------|
Ab|-5~------------------------------|
Eb|---------------------------------|

Bridge/Solo 2 (guitar 2)
Eb|---------------------------------|---------------------------------|
Bb|---------------------------------|---------------------------------|
Gb|---------------------------------|---------------------------------|
Db|---------------------------------|---------------------------------|
Ab|-----7---8---7-----------5-------|-----------------5---------------|
Eb|-0-0---0---0---0-8-0-7-0---0-8---|-0-0-8-0-7-0-8-0---0-8-0-7-0-5---|
                                                                       >rpt
Eb|---------------------------------|---------------------------------| x2
Bb|---------------------------------|---------------------------------|
Gb|---------------------------------|---------------------------------|
Db|---------------------------------|---------------------------------|
Ab|-----7---8---7-----------5-------|-----------------8---7---5---7---|
Eb|-0-0---0---0---0-8-0-7-0---0-8---|-0-0-8-0-7-0-8-0---0---0---0-----|

Eb|---------------------------------|---------------------------------|
Bb|---------------------------------|---------------------------------|
Gb|-9---9/10--9/7---9/10--7/9-------|-9---9/10--9/7---9/10--9/7-------|
Db|-9---9/10--9/7---9/10--7/9-------|-9---9/10--9/7---9/10--9/7-------|
Ab|-7---7/8---7/5---7/8---5/7-------|-7---7/8---7/5---7/8---7/5-------|
Eb|---------------------------------|---------------------------------|
                                                                       >rpt
Eb|---------------------------------|---------------------------------| x2
Bb|---------------------------------|---------------------------------|
Gb|-9---9/10--9/7---9/10--7/9-------|-9---9/10--9/7---9/10-10/7-------|
Db|-9---9/10--9/7---9/10--7/9-------|-9---9/10--9/7---9/10-10/7-------|
Ab|-7---7/8---7/5---7/8---5/7-------|-7---7/8---7/5---7/8---8/5-------|
Eb|---------------------------------|---------------------------------|

Eb|---------------------------------|---------------------------------|
Bb|---------------------------------|---------------------------------|
Gb|---------------------------------|---------------------------------|
Db|---------------------------------|---------------------------------|
Ab|-----7---8---7-----------5-------|-----------------5---------------|
Eb|-0-0---0---0---0-8-0-7-0---0-8---|-0-0-8-0-7-0-8-0---0-8-0-7-0-5---|
                                                                       >rpt
Eb|---------------------------------|---------------------------------| x2
Bb|---------------------------------|---------------------------------|
Gb|---------------------------------|---------------------------------|
Db|---------------------------------|---------------------------------|
Ab|-----7---8---7-----------5-------|-----------------8---7---5---7---|
Eb|-0-0---0---0---0-8-0-7-0---0-8---|-0-0-8-0-7-0-8-0---0---0---0-----|

Breakdown (Guitar 1&2)
Eb|---------------------------------|---------------------------------|
Bb|---------------------------------|---------------------------------|
Gb|---------------------------------|---------------------------------|
Db|-8-------x-7-----------5---------|-8-------x-7-----------5---------|
Ab|-----10--x-------8---------7-----|-----10--x-------8---------7-----|
Eb|---------------------------------|---------------------------------|
                                                                       >rpt
Eb|---------------------------------|---------------------------------| x3
Bb|---------------------------------|---------------------------------|
Gb|---------------------------------|---------------------------------|
Db|---------------------------------|---------------------------------|
Ab|-7-------x-5---------------------|-7-------x-5---------------------|
Eb|-----8---x-------7-----8---5-----|-----8---x-------7-----8---5-----|

Eb|---------------------------------|---------------------------------|
Bb|---------------------------------|---------------------------------|
Gb|---------------------------------|---------------------------------|
Db|-8-------x-7---x-------5-5-------|-8-------x-7---x-------5-5-------|
Ab|-----10--x-----x-8---------7-----|-----10--x-----x-8---------7-----|
Eb|---------------------------------|---------------------------------|
                                                                       >rpt
Eb|---------------------------------|---------------------------------| x2
Bb|---------------------------------|---------------------------------|
Gb|---------------------------------|---------------------------------|
Db|---------------------------------|---------------------------------|
Ab|-7-------x-5---x-----------------|-7-------x-5---x-----------------|
Eb|-----8---x-----x-7-----8-8-5-----|-----8---x-----x-7-----8-8-5-----|

Outro (Guitar 1&2)
Eb|---------------------------------|---------------------------------|
Bb|---------------------------------|---------------------------------|
Gb|---------------------------------|---------------------------------|
Db|-8-------x-7-----------5---------|-8-------x-7-----------5---------|
Ab|-----10--x-------8---------7-----|-----10--x-------8---------7-----|
Eb|---------------------------------|---------------------------------|

Eb|---------------------------------|---------------------------------|
Bb|---------------------------------|---------------------------------|
Gb|---------------------------------|---------------------------------|
Db|---------------------------------|---------------------------------|
Ab|-7-------x-5---------------------|-7-------x-5---------------------|
Eb|-----8---x-------7-----8---5-----|-----8---x-------7-----8---5~----|

Eb|---------------------------------|---------------------------------|
Bb|---------------------------------|---------------------------------|
Gb|---------------------------------|---------------------------------|
Db|---------------------------------|-----2~--------------------------|
Ab|---------------------------------|-----2~--------------------------|
Eb|-3~--------------2~--------------|-0---0~--------------------------|
Tap to rate this tab
# A B C D E F G H I J K L M N O P Q R S T U V W X Y Z