Song name
# A B C D E F G H I J K L M N O P Q R S T U V W X Y Z

Misc Unsigned Bands - Refrain From Silence - Those Sad Eyes tab

this is my first tab, but it's original.
it starts out with slow quarter notes.
------------------------3---------|
-----3---3---3-----3------3---3---|
---2---2---2-----2---2------2-----|
-0-------------0------------------|
----------------------------------|
----------------------------------|

repeat this 2x
then play this 1x then repeat begining

------------------------3-------3-|
-----2---2---2-----3------3---3-3-|
---2---2---2-----2---2------2---2-|
-0-------------0----------------0-|
----------------------------------|
----------------------------------|

when you get through with that then strum this
1 means up strum

         1              1
-3---3---3-3----3---3---3-3----2--2--2-2---|
-3---3---3-3----3---3---3-3----2--2--2-2---|
-2---2---2-2----0---0---0-0----2--2--2-2---|
-0---0---0-0----0---0---0-0----0--0--0-0---|
-------------------------------------------|
-------------------------------------------|

         1              1
-3---3---3-3----3---3---3-3----2--2--2-2---|
-3---3---3-3----3---3---3-3----2--2--2-2---|
-2---2---2-2----0---0---0-0----3--3--3-3---|
-0---0---0-0----0---0---0-0----0--0--0-0---|
-------------------------------------------|
-------------------------------------------|

I dont have a solo yet, but look for up dates later.
End with this.


------------------------3---------3-|
-----3---3---3-----3------3---3-----|
---2---2---2-----2---2------2-------|
-0-------------0--------------------|
------------------------------------|
------------------------------------|
Tap to rate this tab
# A B C D E F G H I J K L M N O P Q R S T U V W X Y Z