Song name
# A B C D E F G H I J K L M N O P Q R S T U V W X Y Z

Misc Unsigned Bands - 3oh3 - Colorado Sunrise tab

Colorado Sunrise - 3OH!3

Tabber: Ryan Hennessey

URL: www.myspace.com/theguyinthefuckyouhat


Tuning: Standard

Notes: The guy who posted this before me had it mostly right. I figured the end set of 
while playing. Please rate!

         Guitar 1

e|-------------------------|
B|-------------------------|
G|--3-1--------------------|
D|1-------------------0----|
A|----------6-6-----6------|
E|--------4-------4--------|

e|-------------------------|
B|-------------------------|
G|--3-1--------------------|
D|1-------------------0----|
A|----------6-6-----6------|
E|--------4-------4--------|

         Guitar 1 & 2

e|-------------------------|
B|-------------------------|
G|--3-1--------------------|
D|1-------------------0----|
A|----------6-6-----6------|
E|--------4-------4--------|
Tap to rate this tab
# A B C D E F G H I J K L M N O P Q R S T U V W X Y Z