Song name
# A B C D E F G H I J K L M N O P Q R S T U V W X Y Z

Misc Unsigned Bands - Botanic - Circle tab

short info:
..........................................
.                                        .
.artist:    ".botanic"                   .
.song name: "Circle"                     .
.music by:   Christoph S.; .botanic      .
.text by:    Hans H.; .botanic           .
.tabbed by:  Christoph S.; .botanic      .
.contact:    mail.botanic@googlemail.com .
.            myspace.com/botanicband     .
.                                        .
..........................................




CIRCLE



part 1: Intro


e||-------5--------------------|-----------------------------------------------------||
B||-----5---5-------5-6-5------|----5-6-5-------5-8-5--------------------------------||
G||---5-------5---5-------5----|--5-------5---5-------5------------------------------||
D||-7-----------7--------------|7-----------7-----------7----------------------------||
A||----------------------------|-----------------------------------------------------||
E||----------------------------|-----------------------------------------------------||
.||...***Repeat.this.part***...|...***Repeat.this.part***....------------------------||


e||-------5-----------5--------|---------------------|-------------------------------||
B||-----5---5-------5---5------|---------------------|-------------------------------||
G||---5-------5---6-------6----|---5-6-7-6-----------|---5-6-7-6---------------------||
D||-7-----------7--------------|-7---------7--5--2---|-7---------7-5-----------7-----||
A||----------------------------|--------------5--2---|---------------7-5-------7-----||
E||----------------------------|--------------3--0---|-------------------8-3-4-5-----||
..||...***Repeat.this.part***..|*Repeat.this.part.3x*|...............................||
Tap to rate this tab
# A B C D E F G H I J K L M N O P Q R S T U V W X Y Z