Song name
# A B C D E F G H I J K L M N O P Q R S T U V W X Y Z

Misc Unsigned Bands - Antagonist - Respect tab

Help us improve GuitareTab! Take a short survey!
R.E.S.P.E.C.T by Antagonist   (www.myspace.com/alwaystheantagonist)

Tuning: Drop C

Note: In most parts the guitars both play the same thing but
there are bits where there are harmonies and stuff which are labelled.


Key: h = hammer on
     p = pull off
     ~ = hold not (kinda let ring)

Intro 0:00 - 0:17 (Both Guitars)
|-------------------------------------------------------------------|
|-------------------------------------------------------------------|
|-------------------------------------------------------------------|
|-------------------------------------------------------------------|
|------8---8-------5---5-------5h7-----8---8-------5---5-------5h7--|
|--000---0---0-000---0---0-000-----000---0---0-000---0---0-000------|
PM ...   .   . ...   .   . ...     ...   .   . ...   .   . ...

|---------------------------------------------------------------------|
|---------------------------------------------------------------------|
|---------------------------------------------------------------------|
|---------------------------------------------------------------------|
|------10---10-------7---7-------7h8-----8---8-------5---7---7---7h8--|
|--888----8----8-888---8---8-888-----555---5---5-555---5---5---5------|
PM ...    .    . ...   .   . ...     ...   .   . ...   .   .   .



Verse 0:17 - 0:32
|--------------------------------------------------------|
|--------------------------------------------------------|
|------7-----7-----7-----7-------------------------------|
|------7-----7-----7-----7-------------------------------|
|------5-----5-----5-----5--555777888777888101010888777--|
|--000---000---000---000---------------------------------|
PM ...   ...   ...   ...
                                                          Both Guitars
|----------------------------------------------------|
|----------------------------------------------------|
|----------------------------------------------------|     
|------5-----5-----5-----5-----3-----3---------------|
|------5-----5-----5-----5-----3-----3--888555333-6--|
|--000-5-000-5-000-5-000-5-000-3-000-3---------------|
PM ...   ...   ...   ...   ...   ...

Guitar One
|--------------------------------------------------------|
|--------------------------------------------------------|
|------7-----7-----7-----7-------------------------------|
|------7-----7-----7-----7-------------------------------|
|------5-----5-----5-----5--555777888777888101010888777--|
|--000---000---000---000---------------------------------|
PM ...   ...   ...   ...

Guitar Two
|-----------------------------------------------------|
|-----------------------------------------------------|
|------7-----7-----7-----7----------------------------|
|------7-----7-----7-----7--333555777555777888777555--|
|------5-----5-----5-----5----------------------------|
|--000---000---000---000------------------------------|
PM ...   ...   ...   ...

|-------------------------------|
|-------------------------------|
|-------------------------------|  Both Guitars
|------5-----5-----5-----5---3--|
|------5-----5-----5-----5---3--|
|--000-5-000-5-000-5-000-5---3--|
PM ...   ...   ...   ...   



Intro 0:34 - 0:51



Verse 0:51 - 1:07



Middle Bit 1:10 - 1:50
|--------------------------------------|
|--------------------------------------|
|--------------------------------------|
|--------------------------------------|
|---------6h9p6-----------6h9p6-5h8p5--|
|--000000-------000000000--------------|
PM ......       .........

|--------------------------------------|
|--------------------------------------|
|--------------------------------------|
|--------------------------------------|
|---------6h9p6-----------6h9p6-5h8p5--|
|--000000-------000000000--------------|
PM ......       .........

|--------------------------------------|
|--------------------------------------|
|--------------------------------------|
|--------------------------------------|
|---------6h9p6-----------6h9p6-5h8p5--|
|--000000-------000000000--------------|
PM ......       .........

|--------------------------------------|
|--------------------------------------|
|--------------------------------------|
|--------------------------------------|
|---------6h9p6------------------------|
|--000000-------000000000-6h9p6-3h6p2--|
PM ......       .........



"Keep your dicks in your pants scumbags!"
Guitar One
|-------------------------|
|-------------------------|
|-------------------------|
|-------------------------|
|--0000-0000-0000-000000--|
|--0000-0000-0000-000000--|
PM .... .... .... ......

Guitar Two 
|---------------------------------------|
|-----------------16-16-16-16-16-16-----|
|-----------------19-19-19-19-19-19-----|
|---------------------------------------|
|---------------------------------------|
|---------------------------------------|                                  



Breakdown 1:53 - 2:19 (Both Guitars)
|-----------------------------------------------|
|-----------------------------------------------|
|-----------------------------------------------|
|--0000-0000-0000-000000-0000-0000-0000-000000--|
|--0000-0000-0000-000000-0000-0000-0000-000000--|
|--0000-0000-0000-000000-0000-0000-0000-000000--|
PM .... .... .... ...... .... .... .... ......

|-----------------------------------------------|
|-----------------------------------------------|
|-----------------------------------------------|
|--0000-0000-0000-000000-0000-0000-0000-000000--|
|--0000-0000-0000-000000-0000-0000-0000-000000--|
|--0000-0000-0000-000000-0000-0000-0000-000000--|
PM .... .... .... ...... .... .... .... ......

|-------------------------------------------------------|
|-------------------------------------------------------|
|-------------------------------------------------------|
|--0000~-0000~-0000~-000000~-0000~-0000~-0000~-000000~--|
|--0000~-0000~-0000~-000000~-0000~-0000~-0000~-000000~--|
|--0000~-0000~-0000~-000000~-0000~-0000~-0000~-000000~--|
PM ....  ....  ....  ......  ....  ....  ....  ......

|-------------------------------------------------------|
|-------------------------------------------------------|
|-------------------------------------------------------|
|--0000~-0000~-0000~-000000~-0000~-0000~-0000~-000000~--|
|--0000~-0000~-0000~-000000~-0000~-0000~-0000~-000000~--|
|--0000~-0000~-0000~-000000~-0000~-0000~-0000~-000000~--|
PM ....  ....  ....  ......  ....  ....  ....  ......



2:19 - 2:28
Guitar One
|-------------------------------------------------------------------|
|-------------------------------------------------------------------|
|-------------------------------------------------------------------|
|-------------------------------------------------------------------|
|------8---8-------5---5-------5h7-----8---8-------5---5-------5h7--|
|--000---0---0-000---0---0-000-----000---0---0-000---0---0-000------|
PM ...   .   . ...   .   . ...     ...   .   . ...   .   . ...

Guitar Two
|-------------------------------------------------------------------|
|-------------------------------------------------------------------|
|-------------------------------------------------------------------|
|------------------------------00-----------------------------------|
|------------------------------00-----------------------------------|
|------------------------------00-----------------------------------|
PM                             ..

Both Guitars
|---------------------------------------------------------------------|
|---------------------------------------------------------------------|
|---------------------------------------------------------------------|
|---------------------------------------------------------------------|
|------10---10-------7---7-------7h8-----8---8-------5---7---7---7h8--|
|--888----8----8-888---8---8-888-----555---5---5-555---5---5---5------|
PM ...    .    . ...   .   . ...     ...   .   . ...   .   .   .



Then repeat Intro as normal until 2:37



Verse 2:37 - 2:52


"But this shit has to end"
|------|
|------|
|------|
|--0~--|
|--0~--|
|--0~--|

Any corrections, let us know. Peace.
Related for Antagonist - Respect tab