Song name
# A B C D E F G H I J K L M N O P Q R S T U V W X Y Z

Misc Unsigned Bands - Nolta - Inside Alexs Mom tab

NOLTA-Inside alex's mom

Drop D

	\=slide down
	/=slide up
	*=pinch harmonic


e---------------------------------|4x
b---------------------------------|
g---------------------------------|
d---------------------------------|
a----8\7---7\5---5\3---3/5---0----|
d--0-----0-----0-----0-----0------|
   .     .     .     .     .
                                
e---------------------------------|2x
b---------------------------------|
g---------------------------------|
d----8\7---7\5---5\3---3/5---0----|
a---------------------------------|
d--0-----0-----0-----0-----0------|
   .     .     .     .     .
                                
e---------------------------------|2x
b---------------------------------|
g---------------------------------|
d---------------------------------|
a----8\7---7\5---5\3---3/5---0----|
d--0-----0-----0-----0-----0------|
   .     .     .     .     .                                                    
                          4x
e----------------------------|----------------------------|4x
b----------------------------|----------------------------|
g----------------------------|----------------------------|
d----------------------------|----8----7----5----3----50--|
a----8----7----5----3----50--|----8----7----5----3----50--|
d-000--000--000--000--000----|-000--000--000--000--000----|
  ...  ...  ...  ...  ...      ...  ...  ...  ...  ...
                                                                      
e------------------------------------------|----------------------------|2x
b------------------------------------------|----------------------------|
g------------------------------------------|----------------------------|
d------------------------------------------|-----8----7----5----3----50-|
a------------------------------------------|-----8----7----5----3----50-|
d-00000-000003*-00000-000003*-00000-000003*|-00008000070000500003000050-|
  ..... .....   ..... .....   ..... .....   .... .... .... .... ....

e-----------------------------|3x
b-----------------------------|
g-----------------------------|
d----8----7----5----3----50---|
a----8----7----5----3----50---|
d00008000070000500003000050---|
 .... .... .... .... ....

e--------------------------|------------------------|---------------|---------------|2x
b--------------------------|------------------------|---------------|---------------|
g--------------------------|------------------------|---------------|---------------|
d------67----65----67----65|----67----65----67----65|------------6/7|------------6/7|
a-----5-----7-----5-----7--|---5-----7-----5-----7--|-000-5--000-6/7|-000-5--000-6/7|
d00000---000---000---000---|000---000---000---000---|-000----000----|-000----000----|
 .....   ...   ...   ...    ...   ...   ...   ...     ...     ...     ...     ...

e-----------------------------|3x
b-----------------------------|
g-----------------------------|
d----8----7----5----3----50---|
a----8----7----5----3----50---|
d00008000070000500003000050---|
 .... .... .... .... ....


e------------------------------------------|
b------------------------------------------|
g------------------------------------------|
d------------------------------------------|           _
a------------------------------------------|		|
d-8888888877775555333333330000000000000000-|		|
  ........................................ 		|Toghether
e---------------------------------------------------|2x	|
b---------------------------------------------------|   |
g---------------------------------------------------|  _|
d---------------------------------------------------|
a---------------------------------------------------|
d-888888887777555533333333555500000000555500000000--|
  ................................................


e--------------------------------------------------|2x
b--------------------------------------------------|
g--------------------------------------------------|
d--------------------------------------------------|
a--------------------------------------------------|
d-888888887777555533333333555500000000555500000000-|


e---------------------------------------------------|  
b---------------------------------------------------|   
g---------------------------------------------------|  _
d-888888887777555533333333555500000000555500000000--|	|
a-888888887777555533333333555500000000555500000000--|	|
d-888888887777555533333333555500000000555500000000--|   |
							|Toghether
e-----------------------------------------------|1x      |
b-----------------------------------------------|       |
g-----------------------------------------------|      _|
d-88888888777755553333333355550000000000000000--|
a-88888888777755553333333355550000000000000000--|
d-88888888777755553333333355550000000000000000--|



e--------------------------------------|2x
b--------------------------------------|
g--------------------------------------|
d-65--65--65--65-3--65--65--65--65-----|
a-65--65--65--65-3--65--65--65--65-----|
d-65--65--65--65-3--65--65--65--65-3*--|
  

e--------------------------------------|4x
b--------------------------------------|
g--------------------------------------|
d-65--65--65--65-3--65--65--65--65-----|
a-65--65--65--65-3--65--65--65--65-----|
d-65006500650065-3--65006500650065-3*--|
    ..  ..  ..        ..  ..  ..

e-------------------------------------------------------------------|3x
b-------------------------------------------------------------------|
g-------------------------------------------------------------------|
d-------------------------------------------------------------------|
a-------------------------------------------------------------------|
d-653535-653535-653535-653535-1097979-1097979-431313-431313---------|
  ...... ...... ...... ...... . ..... . ..... ...... ......

e------------------------------|1x
b------------------------------|
g------------------------------|
d------------------------------|
a------------------------------|
d-653535-653535-653535-653535--|
  ...... ...... ...... ......
				    1x
e-------------------------------------|---------------------------------------|4x
b-------------------------------------|---------------------------------------|
g-------------------------------------|---------------------------------------|
d-------------------------------------|---------------------------------------|
a-------3--------2--------------------|-------3--------2----------------------|
d-653653---653653---6536533---6536530-|-653653---653653---109710973---4314310-|
  ......   ......   ......    ......    ......   ......   . ......    ......

e------------------------------------------|----------------------------|1x
b------------------------------------------|----------------------------|
g------------------------------------------|----------------------------|
d------------------------------------------|-----8----7----5----3----50-|
a------------------------------------------|-----8----7----5----3----50-|
d-00000-000003*-00000-000003*-00000-000003*|-00008000070000500003000050-|
  ..... .....   ..... .....   ..... .....    .... .... .... .... ....    

e----------------------------|1x
b----------------------------|
g----------------------------|
d----8----7----5----3----0---|
a----8----7----5----3----0---|
d0000800007000050000300000---|
 .... .... .... .... ....
Tap to rate this tab
 
# A B C D E F G H I J K L M N O P Q R S T U V W X Y Z