Guitaretab - guitar tabs
Song name
# A B C D E F G H I J K L M N O P Q R S T U V W X Y Z

Misc Unsigned Bands - Night Duty - Speed tab

Symbols:
WB: whammy bar
W: Wah Pedal
h: Hammer On
p: Pull Off
b: Bend
x: Mute
pM: Palm Mute
TS: Toggle Switch (move repetetively)

Notes:
The whole song is really distorted so keep the treb up.

Song:
Intro:
|---------------------------------------------------------------13-|
|-----------------------12-----13-11-12-14-----14p13p12-13p12------|
|------------------------------------------------------------------|
|------------------------------------------------------------------|
|------------------------------------------------------------------|
|------------------------------------------------------------------|
(Drums and bass)        WB              WB                 WB   WB

Build up:
|-x-----1---------------1------------------------------------------|
|-x-----1---------------1------------------------------------------|
|-x-----1---------------1------------------------------------------|
|-x-----1---------------1------------------------------------------|
|-x-----1---------------1------------------------------------------|
|-x-x3--1-x2------------1x10---------------------------------------|
(repeat 9 times then..)
[ Tab from: http://www.guitaretab.com/m/misc-unsigned-bands/114099.html ]
Verse:
|------------------------------------------------------------------|
|------------------------------------------------------------------|
|------------------------------------------------------------------|
|---------------------------------------------------------6-6------|
|-----6-5-6-5-6-5-----6-5-6-5-6-5-----6-5-6-5-6-5-6-5-6-5----------|
|-0-5-------------0-5-------------0-5------------------------------|
                                                            WB
Chorus:
GTR 1:
|------------------------------------------------------------------|
|------------------------------------------------------------------|
|------------------------------------------------------------------|
|------------------------------------------------------------------|
|-1-1-1-1-2-2-2-3-3-3-3-3-3-3-3------------------------------------|
|-1-1-1-1-1-1-1-1-1-1-1-1-1-1-1-x10--------------------------------|
(every other time do WB on last note)

GTR 2:
|------------------------------------------------------------------|
|-7-7-7-7-7-8-8-8-9-9-9-9-9-9-9-9----------------------------------|
|------------------------------------------------------------------|
|------------------------------------------------------------------|
|------------------------------------------------------------------|
|---------------------------------x10------------------------------|
(Use Wah Pedal every 2 counts)

Solo:

GTR 1:
|-------------8----------------------------------------------------|
|-8-7-7-8-7-7---7--------------------------------------------------|
|------------------------------------------------------------------|
|------------------------------------------------------------------|
|------------------------------------------------------------------|
|-----------------x12----------------------------------------------|
(every third time bend last note)

GTR 2:
|-17-16-15-17-16-15--19-17-15-19-17-15--20-17-15-20-17-15----------|
|------------------------------------------------------------------|
|------------------------------------------------------------------|
|------------------------------------------------------------------|
|------------------------------------------------------------------|
|------------------------------------------------------------------|
  (WB for every note then join in with GTR 1)

And thats it... hope u guys like it

- Dawg
Related for Night Duty - Speed tab