Song name
# A B C D E F G H I J K L M N O P Q R S T U V W X Y Z

Misc Unsigned Bands - Crucial Injustice - The Lost tab

----------------------------------------------------------------------------
                       Cruscial Injustice - The Lost
----------------------------------------------------------------------------
Tabber: Christian
E-mail: None

Tuning: Standard E

Intro:
            x1
   Am    Cm    E     Em
e|0-----0-----0-----0-----|
B|1-----1-----0-----0-----|
G|2-----0-----0-----1-----|
D|2-----2-----2-----2-----|
A|0-----3-----2-----2-----|
E|------------0-----0-----|

Verse:
            x3
e|------------------------|
B|------------------------|
G|------------------------|
D|2-----5-----------6-----|
A|0-----3-----2-----2-----|
E|------------0-----0-----|

Chorus: (Intro x4)

Gtr solo:
e|-------------------------------------------------------------------------|
B|555555553333333355555555666666665555555533333333555555556666555533333-3h5|
G|-------------------------------------------------------------------------|
D|-------------------------------------------------------------------------|
A|-------------------------------------------------------------------------|
E|-------------------------------------------------------------------------|

e|-------------|
B|32-2h320-----|
G|-------------|
D|-------------|
A|-------------|
E|-------------|

Bridge:

e|0-0-000-0-000-0-000-0-00|
B|1-1-111-1-110-0-000-0-00|
G|2-2-220-0-000-0-001-1-11|
D|2-2-222-2-222-2-222-2-22|
A|0-0-003-3-332-2-222-2-22|
E|0-0-000-0-000-0-000-0-00|

Outro: (intro x1)

Structure:
Intro
Verse 1
Chorus 1
Verse 2
Chorus 2
Bridge
gtr solo
Chorus 3
outro
Tap to rate this tab
# A B C D E F G H I J K L M N O P Q R S T U V W X Y Z